  0
SECTION
  2
HEADER
  9
$ACADVER
  1
AC1015
  9
$ACADMAINTVER
 70
    20
  9
$DWGCODEPAGE
  3
ANSI_932
  9
$INSBASE
 10
0.0
 20
0.0
 30
0.0
  9
$EXTMIN
 10
-101.3999633789062
 20
-49.99996948242185
 30
0.0
  9
$EXTMAX
 10
220.0000305175781
 20
109.6444376755294
 30
0.0
  9
$LIMMIN
 10
-538.3779053688048
 20
-0.0903897285461426
  9
$LIMMAX
 10
-0.9498206377029415
 20
397.3704833984375
  9
$ORTHOMODE
 70
     0
  9
$REGENMODE
 70
     1
  9
$FILLMODE
 70
     1
  9
$QTEXTMODE
 70
     0
  9
$MIRRTEXT
 70
     1
  9
$LTSCALE
 40
0.1
  9
$ATTMODE
 70
     1
  9
$TEXTSIZE
 40
3.200000047683714
  9
$TRACEWID
 40
0.05
  9
$TEXTSTYLE
  7
MX_NOTE_STANDARD
  9
$CLAYER
  8
0
  9
$CELTYPE
  6
CONTINUOUS
  9
$CECOLOR
 62
     0
  9
$CELTSCALE
 40
1.0
  9
$DISPSILH
 70
     0
  9
$DIMSCALE
 40
1.0
  9
$DIMASZ
 40
2.5
  9
$DIMEXO
 40
1.0
  9
$DIMDLI
 40
3.75
  9
$DIMRND
 40
0.0
  9
$DIMDLE
 40
0.0
  9
$DIMEXE
 40
2.286000013351439
  9
$DIMTP
 40
0.0
  9
$DIMTM
 40
0.0
  9
$DIMTXT
 40
3.200000047683714
  9
$DIMCEN
 40
2.5
  9
$DIMTSZ
 40
0.0
  9
$DIMTOL
 70
     0
  9
$DIMLIM
 70
     0
  9
$DIMTIH
 70
     0
  9
$DIMTOH
 70
     0
  9
$DIMSE1
 70
     0
  9
$DIMSE2
 70
     0
  9
$DIMTAD
 70
     1
  9
$DIMZIN
 70
     8
  9
$DIMBLK
  1

  9
$DIMASO
 70
     1
  9
$DIMSHO
 70
     1
  9
$DIMPOST
  1

  9
$DIMAPOST
  1

  9
$DIMALT
 70
     0
  9
$DIMALTD
 70
     4
  9
$DIMALTF
 40
0.03937007874016
  9
$DIMLFAC
 40
1.0
  9
$DIMTOFL
 70
     1
  9
$DIMTVP
 40
0.0
  9
$DIMTIX
 70
     0
  9
$DIMSOXD
 70
     0
  9
$DIMSAH
 70
     0
  9
$DIMBLK1
  1

  9
$DIMBLK2
  1

  9
$DIMSTYLE
  2
MXDIMSTYLE
  9
$DIMCLRD
 70
     0
  9
$DIMCLRE
 70
     0
  9
$DIMCLRT
 70
     0
  9
$DIMTFAC
 40
1.0
  9
$DIMGAP
 40
1.600000023841857
  9
$DIMJUST
 70
     0
  9
$DIMSD1
 70
     0
  9
$DIMSD2
 70
     0
  9
$DIMTOLJ
 70
     1
  9
$DIMTZIN
 70
     0
  9
$DIMALTZ
 70
     0
  9
$DIMALTTZ
 70
     0
  9
$DIMUPT
 70
     1
  9
$DIMDEC
 70
     4
  9
$DIMTDEC
 70
     4
  9
$DIMALTU
 70
     2
  9
$DIMALTTD
 70
     4
  9
$DIMTXSTY
  7
MX_NOTE_STANDARD
  9
$DIMAUNIT
 70
     0
  9
$DIMADEC
 70
     0
  9
$DIMALTRND
 40
0.0
  9
$DIMAZIN
 70
     0
  9
$DIMDSEP
 70
     0
  9
$DIMATFIT
 70
     3
  9
$DIMFRAC
 70
     0
  9
$DIMLDRBLK
  1

  9
$DIMLUNIT
 70
     2
  9
$DIMLWD
 70
     0
  9
$DIMLWE
 70
     0
  9
$DIMTMOVE
 70
     0
  9
$LUNITS
 70
     2
  9
$LUPREC
 70
     4
  9
$SKETCHINC
 40
0.1
  9
$FILLETRAD
 40
0.0
  9
$AUNITS
 70
     0
  9
$AUPREC
 70
     0
  9
$MENU
  1
acad
  9
$ELEVATION
 40
0.0
  9
$PELEVATION
 40
0.0
  9
$THICKNESS
 40
0.0
  9
$LIMCHECK
 70
     0
  9
$CHAMFERA
 40
2.0
  9
$CHAMFERB
 40
2.0
  9
$CHAMFERC
 40
0.0
  9
$CHAMFERD
 40
0.0
  9
$SKPOLY
 70
     0
  9
$TDCREATE
 40
2456070.818703704
  9
$TDUCREATE
 40
2456070.443703704
  9
$TDUPDATE
 40
2457206.589129942
  9
$TDUUPDATE
 40
2457206.214129942
  9
$TDINDWG
 40
0.1672253472
  9
$TDUSRTIMER
 40
0.1672252431
  9
$USRTIMER
 70
     1
  9
$ANGBASE
 50
0.0
  9
$ANGDIR
 70
     0
  9
$PDMODE
 70
     0
  9
$PDSIZE
 40
0.0
  9
$PLINEWID
 40
0.0
  9
$SPLFRAME
 70
     0
  9
$SPLINETYPE
 70
     6
  9
$SPLINESEGS
 70
     8
  9
$HANDSEED
  5
14FF
  9
$SURFTAB1
 70
     6
  9
$SURFTAB2
 70
     6
  9
$SURFTYPE
 70
     6
  9
$SURFU
 70
     6
  9
$SURFV
 70
     6
  9
$UCSBASE
  2

  9
$UCSNAME
  2

  9
$UCSORG
 10
0.0
 20
0.0
 30
0.0
  9
$UCSXDIR
 10
1.0
 20
0.0
 30
0.0
  9
$UCSYDIR
 10
0.0
 20
1.0
 30
0.0
  9
$UCSORTHOREF
  2

  9
$UCSORTHOVIEW
 70
     0
  9
$UCSORGTOP
 10
0.0
 20
0.0
 30
0.0
  9
$UCSORGBOTTOM
 10
0.0
 20
0.0
 30
0.0
  9
$UCSORGLEFT
 10
0.0
 20
0.0
 30
0.0
  9
$UCSORGRIGHT
 10
0.0
 20
0.0
 30
0.0
  9
$UCSORGFRONT
 10
0.0
 20
0.0
 30
0.0
  9
$UCSORGBACK
 10
0.0
 20
0.0
 30
0.0
  9
$PUCSBASE
  2

  9
$PUCSNAME
  2

  9
$PUCSORG
 10
0.0
 20
0.0
 30
0.0
  9
$PUCSXDIR
 10
1.0
 20
0.0
 30
0.0
  9
$PUCSYDIR
 10
0.0
 20
1.0
 30
0.0
  9
$PUCSORTHOREF
  2

  9
$PUCSORTHOVIEW
 70
     0
  9
$PUCSORGTOP
 10
0.0
 20
0.0
 30
0.0
  9
$PUCSORGBOTTOM
 10
0.0
 20
0.0
 30
0.0
  9
$PUCSORGLEFT
 10
0.0
 20
0.0
 30
0.0
  9
$PUCSORGRIGHT
 10
0.0
 20
0.0
 30
0.0
  9
$PUCSORGFRONT
 10
0.0
 20
0.0
 30
0.0
  9
$PUCSORGBACK
 10
0.0
 20
0.0
 30
0.0
  9
$USERI1
 70
     0
  9
$USERI2
 70
     0
  9
$USERI3
 70
     0
  9
$USERI4
 70
     0
  9
$USERI5
 70
     0
  9
$USERR1
 40
0.0
  9
$USERR2
 40
0.0
  9
$USERR3
 40
0.0
  9
$USERR4
 40
0.0
  9
$USERR5
 40
0.0
  9
$WORLDVIEW
 70
     1
  9
$SHADEDGE
 70
     3
  9
$SHADEDIF
 70
    70
  9
$TILEMODE
 70
     1
  9
$MAXACTVP
 70
    16
  9
$PINSBASE
 10
0.0
 20
0.0
 30
0.0
  9
$PLIMCHECK
 70
     0
  9
$PEXTMIN
 10
1.000000000000000E+20
 20
1.000000000000000E+20
 30
1.000000000000000E+20
  9
$PEXTMAX
 10
-1.000000000000000E+20
 20
-1.000000000000000E+20
 30
-1.000000000000000E+20
  9
$PLIMMIN
 10
0.0
 20
0.0
  9
$PLIMMAX
 10
12.0
 20
9.0
  9
$UNITMODE
 70
     0
  9
$VISRETAIN
 70
     0
  9
$PLINEGEN
 70
     1
  9
$PSLTSCALE
 70
     0
  9
$TREEDEPTH
 70
  3020
  9
$CMLSTYLE
  2
Standard
  9
$CMLJUST
 70
     0
  9
$CMLSCALE
 40
1.0
  9
$PROXYGRAPHICS
 70
     0
  9
$MEASUREMENT
 70
     1
  9
$CELWEIGHT
370
     0
  9
$ENDCAPS
280
     0
  9
$JOINSTYLE
280
     0
  9
$LWDISPLAY
290
     0
  9
$INSUNITS
 70
     0
  9
$HYPERLINKBASE
  1

  9
$STYLESHEET
  1

  9
$XEDIT
290
     1
  9
$CEPSNTYPE
380
     0
  9
$PSTYLEMODE
290
     1
  9
$FINGERPRINTGUID
  2

  9
$VERSIONGUID
  2
{96D99657-CDB7-476D-AA1F-5C6BEC195594}
  9
$EXTNAMES
290
     1
  9
$PSVPSCALE
 40
0.0
  9
$OLESTARTUP
290
     0
  0
ENDSEC
  0
SECTION
  2
CLASSES
  0
CLASS
  1
IMAGE
  2
AcDbRasterImage
  3
ISM
 90
    34943
280
     0
281
     1
  0
CLASS
  1
DICTIONARYVAR
  2
AcDbDictionaryVar
  3
ObjectDBX Classes
 90
        0
280
     0
281
     0
  0
CLASS
  1
RASTERVARIABLES
  2
AcDbRasterVariables
  3
ISM
 90
    32768
280
     0
281
     0
  0
CLASS
  1
IMAGEDEF
  2
AcDbRasterImageDef
  3
ISM
 90
    32768
280
     0
281
     0
  0
CLASS
  1
IMAGEDEF_REACTOR
  2
AcDbRasterImageDefReactor
  3
ISM
 90
    32769
280
     0
281
     0
  0
CLASS
  1
IDBUFFER
  2
AcDbIdBuffer
  3
ObjectDBX Classes
 90
    32768
280
     0
281
     0
  0
CLASS
  1
SPATIAL_FILTER
  2
AcDbSpatialFilter
  3
ObjectDBX Classes
 90
    32768
280
     0
281
     0
  0
CLASS
  1
SORTENTSTABLE
  2
AcDbSortentsTable
  3
ObjectDBX Classes
 90
        0
280
     0
281
     0
  0
CLASS
  1
LAYER_INDEX
  2
AcDbLayerIndex
  3
ObjectDBX Classes
 90
    32768
280
     0
281
     0
  0
CLASS
  1
SPATIAL_INDEX
  2
AcDbSpatialIndex
  3
ObjectDBX Classes
 90
    32768
280
     0
281
     0
  0
CLASS
  1
OBJECT_PTR
  2
CAseDLPNTableRecord
  3
"ASE-LPNTableRecord"
 90
    32769
280
     0
281
     0
  0
CLASS
  1
LAYOUT
  2
AcDbLayout
  3
ObjectDBX Classes
 90
        0
280
     0
281
     0
  0
CLASS
  1
PLOTSETTINGS
  2
AcDbPlotSettings
  3
ObjectDBX Classes
 90
    32768
280
     0
281
     0
  0
CLASS
  1
ACDBDICTIONARYWDFLT
  2
AcDbDictionaryWithDefault
  3
ObjectDBX Classes
 90
        0
280
     0
281
     0
  0
CLASS
  1
ACDBPLACEHOLDER
  2
AcDbPlaceHolder
  3
ObjectDBX Classes
 90
        0
280
     0
281
     0
  0
CLASS
  1
MATERIAL
  2
AcDbMaterial
  3
ObjectDBX Classes
 90
     1153
280
     0
281
     0
  0
CLASS
  1
VISUALSTYLE
  2
AcDbVisualStyle
  3
ObjectDBX Classes
 90
     4095
280
     0
281
     0
  0
CLASS
  1
TABLESTYLE
  2
AcDbTableStyle
  3
ObjectDBX Classes
 90
     4095
280
     0
281
     0
  0
CLASS
  1
SCALE
  2
AcDbScale
  3
ObjectDBX Classes
 90
     1153
280
     0
281
     0
  0
CLASS
  1
MLEADERSTYLE
  2
AcDbMLeaderStyle
  3
ACDB_MLEADERSTYLE_CLASS
 90
     4095
280
     0
281
     0
  0
CLASS
  1
ACDBSECTIONVIEWSTYLE
  2
AcDbSectionViewStyle
  3
ObjectDBX Classes
 90
     1025
280
     0
281
     0
  0
CLASS
  1
ACDBDETAILVIEWSTYLE
  2
AcDbDetailViewStyle
  3
ObjectDBX Classes
 90
     1025
280
     0
281
     0
  0
CLASS
  1
CELLSTYLEMAP
  2
AcDbCellStyleMap
  3
ObjectDBX Classes
 90
     1152
280
     0
281
     0
  0
CLASS
  1
EXACXREFPANELOBJECT
  2
ExAcXREFPanelObject
  3
EXAC_ESW
 90
    33793
280
     0
281
     0
  0
CLASS
  1
NPOCOLLECTION
  2
AcDbImpNonPersistentObjectsCollection
  3
ObjectDBX Classes
 90
    33921
280
     0
281
     0
  0
ENDSEC
  0
SECTION
  2
TABLES
  0
TABLE
  2
VPORT
  5
7
330
0
100
AcDbSymbolTable
 70
     1
  0
VPORT
  5
15
330
7
100
AcDbSymbolTableRecord
100
AcDbViewportTableRecord
  2
*ACTIVE
 70
     0
 10
0.0
 20
0.0
 11
1.0
 21
1.0
 12
68.40684378673723
 22
66.05834865346697
 13
0.0
 23
0.0
 14
1.0
 24
1.0
 15
0.0
 25
0.0
 16
0.0
 26
0.0
 36
1.0
 17
0.0
 27
0.0
 37
0.0
 40
141.8652247946993
 41
2.142523364485981
 42
50.0
 43
0.0
 44
0.0
 50
0.0
 51
0.0
 71
     0
 72
   100
 73
     1
 74
     3
 75
     0
 76
     0
 77
     0
 78
     0
281
     0
 65
     0
110
0.0
120
0.0
130
0.0
111
1.0
121
0.0
131
0.0
112
0.0
122
1.0
132
0.0
 79
     0
146
0.0
1001
ACAD_NAV_VCDISPLAY
1070
     3
  0
ENDTAB
  0
TABLE
  2
LTYPE
  5
4
330
0
100
AcDbSymbolTable
 70
     4
  0
LTYPE
  5
11
330
4
100
AcDbSymbolTableRecord
100
AcDbLinetypeTableRecord
  2
BYBLOCK
 70
     0
  3

 72
    65
 73
     0
 40
0.0
  0
LTYPE
  5
12
330
4
100
AcDbSymbolTableRecord
100
AcDbLinetypeTableRecord
  2
BYLAYER
 70
     0
  3

 72
    65
 73
     0
 40
0.0
  0
LTYPE
  5
13
330
4
100
AcDbSymbolTableRecord
100
AcDbLinetypeTableRecord
  2
CONTINUOUS
 70
     0
  3
Solid line
 72
    65
 73
     0
 40
0.0
  0
LTYPE
  5
105
330
4
100
AcDbSymbolTableRecord
100
AcDbLinetypeTableRecord
  2
PHANTOM
 70
     0
  3
Phantom ______  __  __  ______  __  __  ______
 72
    65
 73
     6
 40
63.50000000000001
 49
31.75
 74
     0
 49
-6.349999999999997
 74
     0
 49
6.349999999999997
 74
     0
 49
-6.349999999999997
 74
     0
 49
6.349999999999997
 74
     0
 49
-6.349999999999997
 74
     0
  0
LTYPE
  5
301
330
4
100
AcDbSymbolTableRecord
100
AcDbLinetypeTableRecord
  2
DASHED
 70
     0
  3
Dashed __ __ __ __ __ __ __ __ __ __ __ __ __ _
 72
    65
 73
     2
 40
19.05
 49
12.7
 74
     0
 49
-6.349999999999997
 74
     0
  0
ENDTAB
  0
TABLE
  2
LAYER
  5
2
102
{ACAD_XDICTIONARY
360
5BC
102
}
330
0
100
AcDbSymbolTable
 70
     2
  0
LAYER
  5
14
102
{ACAD_XDICTIONARY
360
5C7
102
}
330
2
100
AcDbSymbolTableRecord
100
AcDbLayerTableRecord
  2
0
 70
     0
 62
     7
  6
CONTINUOUS
370
    -3
390
1D
  0
LAYER
  5
24
330
2
100
AcDbSymbolTableRecord
100
AcDbLayerTableRecord
  2
DEFPOINTS
 70
     0
 62
     7
  6
CONTINUOUS
290
     0
370
    -3
390
1D
  0
ENDTAB
  0
TABLE
  2
STYLE
  5
3
330
0
100
AcDbSymbolTable
 70
     2
  0
STYLE
  5
17
330
3
100
AcDbSymbolTableRecord
100
AcDbTextStyleTableRecord
  2
MX_NOTE_STANDARD
 70
     0
 40
0.0
 41
1.0
 50
0.0
 71
     0
 42
3.200000047683714
  3
simplex.sh
  4
extfont
  0
STYLE
  5
629
330
3
100
AcDbSymbolTableRecord
100
AcDbTextStyleTableRecord
  2
Standard
 70
     0
 40
0.0
 41
1.0
 50
0.0
 71
     0
 42
0.2
  3

  4

  0
ENDTAB
  0
TABLE
  2
VIEW
  5
5
330
0
100
AcDbSymbolTable
 70
     0
  0
ENDTAB
  0
TABLE
  2
UCS
  5
6
330
0
100
AcDbSymbolTable
 70
     0
  0
ENDTAB
  0
TABLE
  2
APPID
  5
8
330
0
100
AcDbSymbolTable
 70
     5
  0
APPID
  5
16
330
8
100
AcDbSymbolTableRecord
100
AcDbRegAppTableRecord
  2
ACAD
 70
     0
  0
APPID
  5
52
330
8
100
AcDbSymbolTableRecord
100
AcDbRegAppTableRecord
  2
CONTENTBLOCKDESCRIPTION
 70
     0
  0
APPID
  5
513
330
8
100
AcDbSymbolTableRecord
100
AcDbRegAppTableRecord
  2
ACAD_EXEMPT_FROM_CAD_STANDARDS
 70
     0
  0
APPID
  5
5BB
330
8
100
AcDbSymbolTableRecord
100
AcDbRegAppTableRecord
  2
ACAD_NAV_VCDISPLAY
 70
     0
  0
APPID
  5
620
330
8
100
AcDbSymbolTableRecord
100
AcDbRegAppTableRecord
  2
ACAD_MLEADERVER
 70
     0
  0
ENDTAB
  0
TABLE
  2
DIMSTYLE
  5
9
330
0
100
AcDbSymbolTable
 70
     2
100
AcDbDimStyleTable
 71
     1
340
18
  0
DIMSTYLE
105
18
330
9
100
AcDbSymbolTableRecord
100
AcDbDimStyleTableRecord
  2
MXDIMSTYLE
 70
     0
 41
2.5
 42
1.0
 43
3.75
 44
2.286000013351439
 73
     0
 74
     0
 77
     1
 78
     8
140
3.200000047683714
141
2.5
143
0.03937007874016
147
1.600000023841857
171
     4
172
     1
274
     4
288
     1
340
17
  0
ENDTAB
  0
TABLE
  2
BLOCK_RECORD
  5
1
330
0
100
AcDbSymbolTable
 70
     2
  0
BLOCK_RECORD
  5
A
102
{ACAD_XDICTIONARY
360
12B9
102
}
330
1
100
AcDbSymbolTableRecord
100
AcDbBlockTableRecord
  2
*MODEL_SPACE
340
20
  0
BLOCK_RECORD
  5
B
330
1
100
AcDbSymbolTableRecord
100
AcDbBlockTableRecord
  2
*PAPER_SPACE
340
21
  0
ENDTAB
  0
ENDSEC
  0
SECTION
  2
BLOCKS
  0
BLOCK
  5
D
330
A
100
AcDbEntity
  8
0
100
AcDbBlockBegin
  2
*MODEL_SPACE
 70
     0
 10
0.0
 20
0.0
 30
0.0
  3
*MODEL_SPACE
  1

  0
ENDBLK
  5
E
330
A
100
AcDbEntity
  8
0
100
AcDbBlockEnd
  0
BLOCK
  5
F
330
B
100
AcDbEntity
 67
     1
  8
0
100
AcDbBlockBegin
  2
*PAPER_SPACE
 70
     0
 10
0.0
 20
0.0
 30
0.0
  3
*PAPER_SPACE
  1

  0
ENDBLK
  5
10
330
B
100
AcDbEntity
 67
     1
  8
0
100
AcDbBlockEnd
  0
ENDSEC
  0
SECTION
  2
ENTITIES
  0
ELLIPSE
  5
2E4
330
A
100
AcDbEntity
  8
0
  6
Continuous
 62
     0
370
    20
100
AcDbEllipse
 10
80.5
 20
45.0
 30
0.0
 11
5.0
 21
0.0
 31
0.0
210
0.0
220
0.0
230
1.0
 40
0.3719100952148437
 41
3.141592653589792
 42
6.283185307179584
  0
ELLIPSE
  5
2E5
330
A
100
AcDbEntity
  8
0
  6
Continuous
 62
     0
370
    20
100
AcDbEllipse
 10
67.5
 20
45.0
 30
0.0
 11
5.0
 21
0.0
 31
0.0
210
0.0
220
0.0
230
1.0
 40
0.3719100952148437
 41
3.141592653589792
 42
6.283185307179584
  0
ELLIPSE
  5
2E6
330
A
100
AcDbEntity
  8
0
  6
Continuous
 62
     0
370
    20
100
AcDbEllipse
 10
80.5
 20
45.0
 30
0.0
 11
5.0
 21
0.0
 31
0.0
210
0.0
220
0.0
230
1.0
 40
0.3719070434570312
 41
0.0
 42
3.141592653589792
  0
ELLIPSE
  5
2E7
330
A
100
AcDbEntity
  8
0
  6
Continuous
 62
     0
370
    20
100
AcDbEllipse
 10
67.5
 20
45.0
 30
0.0
 11
5.0
 21
0.0
 31
0.0
210
0.0
220
0.0
230
1.0
 40
0.3719070434570312
 41
0.0
 42
3.141592653589792
  0
ELLIPSE
  5
2E8
330
A
100
AcDbEntity
  8
0
  6
Continuous
 62
     0
370
    20
100
AcDbEllipse
 10
80.5
 20
45.0
 30
0.0
 11
5.20001220703125
 21
0.0
 31
0.0
210
0.0
220
0.0
230
1.0
 40
0.4226190476190478
 41
0.0
 42
3.141592653589792
  0
ELLIPSE
  5
2E9
330
A
100
AcDbEntity
  8
0
  6
Continuous
 62
     0
370
    20
100
AcDbEllipse
 10
67.5
 20
45.0
 30
0.0
 11
5.20001220703125
 21
0.0
 31
0.0
210
0.0
220
0.0
230
1.0
 40
0.4226190476190478
 41
0.0
 42
3.141592653589792
  0
ELLIPSE
  5
2EA
330
A
100
AcDbEntity
  8
0
  6
Continuous
 62
     0
370
    20
100
AcDbEllipse
 10
80.5
 20
45.0
 30
0.0
 11
5.20001220703125
 21
0.0
 31
0.0
210
0.0
220
0.0
230
1.0
 40
0.4226161132434241
 41
3.141592653589792
 42
6.283185307179584
  0
ELLIPSE
  5
2EB
330
A
100
AcDbEntity
  8
0
  6
Continuous
 62
     0
370
    20
100
AcDbEllipse
 10
67.5
 20
45.0
 30
0.0
 11
5.20001220703125
 21
0.0
 31
0.0
210
0.0
220
0.0
230
1.0
 40
0.4226161132434241
 41
3.141592653589792
 42
6.283185307179584
  0
ARC
  5
2F8
330
A
100
AcDbEntity
  8
0
  6
PHANTOM
 62
     0
370
    20
100
AcDbCircle
 10
199.7697296142578
 20
-15.0
 30
0.0
 40
5.0
100
AcDbArc
 50
89.99992737239761
 51
162.5423556791059
  0
ARC
  5
2F9
330
A
100
AcDbEntity
  8
0
  6
PHANTOM
 62
     0
370
    20
100
AcDbCircle
 10
199.7697296142578
 20
15.0
 30
0.0
 40
5.0
100
AcDbArc
 50
197.4575896793813
 51
270.0000179860891
  0
ARC
  5
2FA
330
A
100
AcDbEntity
  8
0
  6
Continuous
 62
     0
370
    20
100
AcDbCircle
 10
61.00003051757813
 20
33.138916015625
 30
0.0
 40
1.0
100
AcDbArc
 50
179.999994991043
 51
269.9999974955215
  0
ARC
  5
2FB
330
A
100
AcDbEntity
  8
0
  6
Continuous
 62
     0
370
    20
100
AcDbCircle
 10
87.00003051757812
 20
33.138916015625
 30
0.0
 40
1.0
100
AcDbArc
 50
269.9999974955215
 51
0.0
  0
ARC
  5
307
330
A
100
AcDbEntity
  8
0
  6
Continuous
 62
     0
370
    20
100
AcDbCircle
 10
37.00003051757813
 20
-48.99996948242185
 30
0.0
 40
1.0
100
AcDbArc
 50
269.9999633445757
 51
359.9999453584866
  0
ARC
  5
308
330
A
100
AcDbEntity
  8
0
  6
Continuous
 62
     0
370
    20
100
AcDbCircle
 10
4.0
 20
-48.99996948242185
 30
0.0
 40
1.0
100
AcDbArc
 50
179.9999813306646
 51
269.9999633445757
  0
ARC
  5
309
330
A
100
AcDbEntity
  8
0
  6
Continuous
 62
     0
370
    20
100
AcDbCircle
 10
15.1226806640625
 20
-48.99996948242185
 30
0.0
 40
1.0
100
AcDbArc
 50
269.9999633445757
 51
330.0000196557405
  0
ARC
  5
30A
330
A
100
AcDbEntity
  8
0
  6
Continuous
 62
     0
370
    20
100
AcDbCircle
 10
31.27737426757813
 20
-48.99996948242185
 30
0.0
 40
1.0
100
AcDbArc
 50
209.9998523918969
 51
269.9999633445757
  0
ARC
  5
30B
330
A
100
AcDbEntity
  8
0
  6
Continuous
 62
     0
370
    20
100
AcDbCircle
 10
-100.3999633789062
 20
-19.18600463867187
 30
0.0
 40
1.0
100
AcDbArc
 50
179.9999813306646
 51
261.655008971384
  0
ARC
  5
30C
330
A
100
AcDbEntity
  8
0
  6
Continuous
 62
     0
370
    20
100
AcDbCircle
 10
-100.3999633789062
 20
19.18600463867187
 30
0.0
 40
1.0
100
AcDbArc
 50
98.34507982107478
 51
179.9999640278219
  0
ARC
  5
30D
330
A
100
AcDbEntity
  8
0
  6
Continuous
 62
     0
370
    20
100
AcDbCircle
 10
52.00003051757811
 20
-22.0
 30
0.0
 40
2.0
100
AcDbArc
 50
89.99998201391097
 51
179.9999640278219
  0
ARC
  5
30E
330
A
100
AcDbEntity
  8
0
  6
Continuous
 62
     0
370
    20
100
AcDbCircle
 10
52.00003051757811
 20
22.0
 30
0.0
 40
2.0
100
AcDbArc
 50
179.9999813306646
 51
270.0000179860891
  0
ARC
  5
30F
330
A
100
AcDbEntity
  8
0
  6
Continuous
 62
     0
370
    20
100
AcDbCircle
 10
31.27737426757813
 20
48.99996948242185
 30
0.0
 40
1.0
100
AcDbArc
 50
89.99998201391097
 51
150.0000929665899
  0
ARC
  5
310
330
A
100
AcDbEntity
  8
0
  6
Continuous
 62
     0
370
    20
100
AcDbCircle
 10
15.1226806640625
 20
48.99996948242185
 30
0.0
 40
1.0
100
AcDbArc
 50
29.99992911783948
 51
89.99998201391097
  0
ARC
  5
311
330
A
100
AcDbEntity
  8
0
  6
Continuous
 62
     0
370
    20
100
AcDbCircle
 10
37.00003051757813
 20
48.99996948242185
 30
0.0
 40
1.0
100
AcDbArc
 50
0.0
 51
89.99998201391097
  0
ARC
  5
312
330
A
100
AcDbEntity
  8
0
  6
Continuous
 62
     0
370
    20
100
AcDbCircle
 10
4.0
 20
48.99996948242185
 30
0.0
 40
1.0
100
AcDbArc
 50
89.99998201391097
 51
179.9999640278219
  0
ARC
  5
318
330
A
100
AcDbEntity
  8
0
  6
Continuous
 62
     0
370
    20
100
AcDbCircle
 10
86.9998779296875
 20
40.35064697265625
 30
0.0
 40
1.0
100
AcDbArc
 50
0.0
 51
89.99998201391097
  0
ARC
  5
319
330
A
100
AcDbEntity
  8
0
  6
Continuous
 62
     0
370
    20
100
AcDbCircle
 10
90.0
 20
66.72109985351561
 30
0.0
 40
2.0
100
AcDbArc
 50
89.99992737239761
 51
179.9999640278219
  0
ARC
  5
31A
330
A
100
AcDbEntity
  8
0
  6
Continuous
 62
     0
370
    20
100
AcDbCircle
 10
90.0
 20
61.99998474121094
 30
0.0
 40
2.0
100
AcDbArc
 50
89.99992737239761
 51
179.9999640278219
  0
ARC
  5
31B
330
A
100
AcDbEntity
  8
0
  6
Continuous
 62
     0
370
    20
100
AcDbCircle
 10
90.9998779296875
 20
95.0
 30
0.0
 40
1.0
100
AcDbArc
 50
359.9999453584866
 51
89.99992737239761
  0
ARC
  5
31C
330
A
100
AcDbEntity
  8
0
  6
Continuous
 62
     0
370
    20
100
AcDbCircle
 10
90.9998779296875
 20
65.0
 30
0.0
 40
1.0
100
AcDbArc
 50
269.9999633445757
 51
359.9999453584866
  0
ARC
  5
31D
330
A
100
AcDbEntity
  8
0
  6
Continuous
 62
     0
370
    20
100
AcDbCircle
 10
60.9998779296875
 20
40.35064697265625
 30
0.0
 40
1.0
100
AcDbArc
 50
89.99992737239761
 51
179.9999640278219
  0
LINE
  5
322
330
A
100
AcDbEntity
  8
0
  6
Continuous
 62
     0
370
    20
100
AcDbLine
 10
64.1737060546875
 20
50.03045654296875
 30
0.0
 11
85.99783325195312
 21
50.03045654296875
 31
0.0
  0
LINE
  5
327
330
A
100
AcDbEntity
  8
0
  6
Continuous
 62
     0
370
    20
100
AcDbLine
 10
17.00003051757813
 20
71.0
 30
0.0
 11
17.00003051757813
 21
89.0
 31
0.0
  0
LINE
  5
359
330
A
100
AcDbEntity
  8
0
  6
PHANTOM
 62
     0
370
    20
100
AcDbLine
 10
220.0000305175781
 20
-9.0
 30
0.0
 11
220.0000305175781
 21
9.0
 31
0.0
  0
LINE
  5
35A
330
A
100
AcDbEntity
  8
0
  6
PHANTOM
 62
     0
370
    20
100
AcDbLine
 10
215.0000152587891
 20
10.0
 30
0.0
 11
215.0000152587891
 21
-10.0
 31
0.0
  0
LINE
  5
35B
330
A
100
AcDbEntity
  8
0
  6
PHANTOM
 62
     0
370
    20
100
AcDbLine
 10
191.0000305175781
 20
-15.0
 30
0.0
 11
193.000015258789
 21
-15.0
 31
0.0
  0
LINE
  5
35C
330
A
100
AcDbEntity
  8
0
  6
PHANTOM
 62
     0
370
    20
100
AcDbLine
 10
191.0000305175781
 20
-15.0
 30
0.0
 11
193.000015258789
 21
-15.0
 31
0.0
  0
LINE
  5
35D
330
A
100
AcDbEntity
  8
0
  6
PHANTOM
 62
     0
370
    20
100
AcDbLine
 10
178.0000610351561
 20
-16.5
 30
0.0
 11
178.0000610351561
 21
0.0
 31
0.0
  0
LINE
  5
35E
330
A
100
AcDbEntity
  8
0
  6
PHANTOM
 62
     0
370
    20
100
AcDbLine
 10
191.0000305175781
 20
-16.5
 30
0.0
 11
191.0000305175781
 21
0.0
 31
0.0
  0
LINE
  5
35F
330
A
100
AcDbEntity
  8
0
  6
PHANTOM
 62
     0
370
    20
100
AcDbLine
 10
178.0
 20
-16.5
 30
0.0
 11
191.0000305175781
 21
-16.5
 31
0.0
  0
LINE
  5
360
330
A
100
AcDbEntity
  8
0
  6
Continuous
 62
     0
370
    20
100
AcDbLine
 10
176.5000610351561
 20
-15.0
 30
0.0
 11
178.0
 21
-15.0
 31
0.0
  0
LINE
  5
361
330
A
100
AcDbEntity
  8
0
  6
PHANTOM
 62
     0
370
    20
100
AcDbLine
 10
176.5000610351561
 20
-15.0
 30
0.0
 11
178.0
 21
-15.0
 31
0.0
  0
LINE
  5
362
330
A
100
AcDbEntity
  8
0
  6
Continuous
 62
     0
370
    20
100
AcDbLine
 10
176.5
 20
-15.0
 30
0.0
 11
176.5
 21
0.0
 31
0.0
  0
LINE
  5
363
330
A
100
AcDbEntity
  8
0
  6
PHANTOM
 62
     0
370
    20
100
AcDbLine
 10
215.000078886409
 20
-10.00007723896033
 30
0.0
 11
216.0000689055268
 21
-9.000086714085226
 31
0.0
  0
LINE
  5
364
330
A
100
AcDbEntity
  8
0
  6
PHANTOM
 62
     0
370
    20
100
AcDbLine
 10
193.000015258789
 20
-13.5
 30
0.0
 11
195.0000305175781
 21
-13.5
 31
0.0
  0
LINE
  5
365
330
A
100
AcDbEntity
  8
0
  6
PHANTOM
 62
     0
370
    20
100
AcDbLine
 10
195.0000305175781
 20
-13.5
 30
0.0
 11
195.0000305175781
 21
0.0
 31
0.0
  0
LINE
  5
366
330
A
100
AcDbEntity
  8
0
  6
Continuous
 62
     0
 60
     1
370
    20
100
AcDbLine
 10
-238.1948089599609
 20
149.2597351074218
 30
0.0
 11
-238.1948089599609
 21
164.2597351074219
 31
0.0
  0
LINE
  5
367
330
A
100
AcDbEntity
  8
0
  6
PHANTOM
 62
     0
370
    20
100
AcDbLine
 10
199.7697296142578
 20
-10.0
 30
0.0
 11
215.0000305175781
 21
-10.0
 31
0.0
  0
LINE
  5
368
330
A
100
AcDbEntity
  8
0
  6
PHANTOM
 62
     0
370
    20
100
AcDbLine
 10
216.0000305175781
 20
-6.999984741210937
 30
0.0
 11
218.000015258789
 21
-6.999984741210937
 31
0.0
  0
LINE
  5
369
330
A
100
AcDbEntity
  8
0
  6
PHANTOM
 62
     0
370
    20
100
AcDbLine
 10
216.0000305175781
 20
-9.0
 30
0.0
 11
216.0000305175781
 21
0.0
 31
0.0
  0
LINE
  5
36A
330
A
100
AcDbEntity
  8
0
  6
PHANTOM
 62
     0
370
    20
100
AcDbLine
 10
218.000015258789
 20
-9.0
 30
0.0
 11
218.000015258789
 21
0.0
 31
0.0
  0
LINE
  5
36B
330
A
100
AcDbEntity
  8
0
  6
PHANTOM
 62
     0
370
    20
100
AcDbLine
 10
218.000015258789
 20
-9.0
 30
0.0
 11
220.0000305175781
 21
-9.0
 31
0.0
  0
LINE
  5
36C
330
A
100
AcDbEntity
  8
0
  6
PHANTOM
 62
     0
370
    20
100
AcDbLine
 10
191.0000305175781
 20
15.0
 30
0.0
 11
193.000015258789
 21
15.0
 31
0.0
  0
LINE
  5
36D
330
A
100
AcDbEntity
  8
0
  6
PHANTOM
 62
     0
370
    20
100
AcDbLine
 10
191.0000305175781
 20
15.0
 30
0.0
 11
193.000015258789
 21
15.0
 31
0.0
  0
LINE
  5
36E
330
A
100
AcDbEntity
  8
0
  6
PHANTOM
 62
     0
370
    20
100
AcDbLine
 10
178.0000610351561
 20
16.5
 30
0.0
 11
178.0000610351561
 21
0.0
 31
0.0
  0
LINE
  5
36F
330
A
100
AcDbEntity
  8
0
  6
PHANTOM
 62
     0
370
    20
100
AcDbLine
 10
191.0000305175781
 20
16.5
 30
0.0
 11
191.0000305175781
 21
0.0
 31
0.0
  0
LINE
  5
370
330
A
100
AcDbEntity
  8
0
  6
PHANTOM
 62
     0
370
    20
100
AcDbLine
 10
178.0
 20
16.5
 30
0.0
 11
191.0000305175781
 21
16.5
 31
0.0
  0
LINE
  5
371
330
A
100
AcDbEntity
  8
0
  6
PHANTOM
 62
     0
370
    20
100
AcDbLine
 10
176.5000610351561
 20
15.0
 30
0.0
 11
178.0
 21
15.0
 31
0.0
  0
LINE
  5
372
330
A
100
AcDbEntity
  8
0
  6
PHANTOM
 62
     0
370
    20
100
AcDbLine
 10
176.5000610351561
 20
15.0
 30
0.0
 11
178.0
 21
15.0
 31
0.0
  0
LINE
  5
373
330
A
100
AcDbEntity
  8
0
  6
Continuous
 62
     0
370
    20
100
AcDbLine
 10
176.5
 20
15.0
 30
0.0
 11
176.5
 21
0.0
 31
0.0
  0
LINE
  5
374
330
A
100
AcDbEntity
  8
0
  6
PHANTOM
 62
     0
370
    20
100
AcDbLine
 10
215.000032927729
 20
10.00000001308297
 30
0.0
 11
216.0000124101324
 21
9.000020530679535
 31
0.0
  0
LINE
  5
375
330
A
100
AcDbEntity
  8
0
  6
PHANTOM
 62
     0
370
    20
100
AcDbLine
 10
193.000015258789
 20
13.5
 30
0.0
 11
195.0000305175781
 21
13.5
 31
0.0
  0
LINE
  5
376
330
A
100
AcDbEntity
  8
0
  6
PHANTOM
 62
     0
370
    20
100
AcDbLine
 10
195.0000305175781
 20
13.5
 30
0.0
 11
195.0000305175781
 21
0.0
 31
0.0
  0
LINE
  5
377
330
A
100
AcDbEntity
  8
0
  6
Continuous
 62
     0
 60
     1
370
    20
100
AcDbLine
 10
-238.1948089599609
 20
179.2597351074219
 30
0.0
 11
-238.1948089599609
 21
164.2597351074219
 31
0.0
  0
LINE
  5
378
330
A
100
AcDbEntity
  8
0
  6
PHANTOM
 62
     0
370
    20
100
AcDbLine
 10
199.7697296142578
 20
10.0
 30
0.0
 11
215.0000305175781
 21
10.0
 31
0.0
  0
LINE
  5
379
330
A
100
AcDbEntity
  8
0
  6
PHANTOM
 62
     0
370
    20
100
AcDbLine
 10
216.0000305175781
 20
6.999984741210937
 30
0.0
 11
218.000015258789
 21
6.999984741210937
 31
0.0
  0
LINE
  5
37A
330
A
100
AcDbEntity
  8
0
  6
PHANTOM
 62
     0
370
    20
100
AcDbLine
 10
216.0000305175781
 20
9.0
 30
0.0
 11
216.0000305175781
 21
0.0
 31
0.0
  0
LINE
  5
37B
330
A
100
AcDbEntity
  8
0
  6
PHANTOM
 62
     0
370
    20
100
AcDbLine
 10
218.000015258789
 20
9.0
 30
0.0
 11
218.000015258789
 21
0.0
 31
0.0
  0
LINE
  5
37C
330
A
100
AcDbEntity
  8
0
  6
PHANTOM
 62
     0
370
    20
100
AcDbLine
 10
220.0000305175781
 20
9.0
 30
0.0
 11
220.0000305175781
 21
0.0
 31
0.0
  0
LINE
  5
37D
330
A
100
AcDbEntity
  8
0
  6
PHANTOM
 62
     0
370
    20
100
AcDbLine
 10
218.000015258789
 20
9.0
 30
0.0
 11
220.0000305175781
 21
9.0
 31
0.0
  0
LINE
  5
37E
330
A
100
AcDbEntity
  8
0
  6
Continuous
 62
     0
370
    20
100
AcDbLine
 10
143.5000305175781
 20
-8.000015258789062
 30
0.0
 11
148.5000305175781
 21
-8.000015258789062
 31
0.0
  0
LINE
  5
37F
330
A
100
AcDbEntity
  8
0
  6
Continuous
 62
     0
370
    20
100
AcDbLine
 10
173.5000817123949
 20
-17.50020367773868
 30
0.0
 11
176.5000731323584
 21
-16.69635792991857
 31
0.0
  0
LINE
  5
380
330
A
100
AcDbEntity
  8
0
  6
Continuous
 62
     0
370
    20
100
AcDbLine
 10
173.5000305175781
 20
-17.5
 30
0.0
 11
173.5000305175781
 21
0.0
 31
0.0
  0
LINE
  5
381
330
A
100
AcDbEntity
  8
0
  6
Continuous
 62
     0
370
    20
100
AcDbLine
 10
148.5000305175781
 20
-17.5
 30
0.0
 11
173.5000305175781
 21
-17.5
 31
0.0
  0
LINE
  5
382
330
A
100
AcDbEntity
  8
0
  6
Continuous
 62
     0
370
    20
100
AcDbLine
 10
148.5000305175781
 20
-17.5
 30
0.0
 11
148.5000305175781
 21
0.0
 31
0.0
  0
LINE
  5
383
330
A
100
AcDbEntity
  8
0
  6
Continuous
 62
     0
370
    20
100
AcDbLine
 10
176.5
 20
-16.69615173339844
 30
0.0
 11
176.5
 21
0.0
 31
0.0
  0
LINE
  5
384
330
A
100
AcDbEntity
  8
0
  6
Continuous
 62
     0
370
    20
100
AcDbLine
 10
143.5000305175781
 20
8.000015258789062
 30
0.0
 11
148.5000305175781
 21
8.000015258789062
 31
0.0
  0
LINE
  5
385
330
A
100
AcDbEntity
  8
0
  6
Continuous
 62
     0
370
    20
100
AcDbLine
 10
173.4999799043298
 20
17.49992405312696
 30
0.0
 11
176.499956585435
 21
16.69608280993543
 31
0.0
  0
LINE
  5
386
330
A
100
AcDbEntity
  8
0
  6
Continuous
 62
     0
370
    20
100
AcDbLine
 10
173.5000305175781
 20
17.5
 30
0.0
 11
173.5000305175781
 21
0.0
 31
0.0
  0
LINE
  5
387
330
A
100
AcDbEntity
  8
0
  6
Continuous
 62
     0
370
    20
100
AcDbLine
 10
148.5000305175781
 20
17.5
 30
0.0
 11
173.5000305175781
 21
17.5
 31
0.0
  0
LINE
  5
388
330
A
100
AcDbEntity
  8
0
  6
Continuous
 62
     0
370
    20
100
AcDbLine
 10
148.5000305175781
 20
17.5
 30
0.0
 11
148.5000305175781
 21
0.0
 31
0.0
  0
LINE
  5
389
330
A
100
AcDbEntity
  8
0
  6
Continuous
 62
     0
370
    20
100
AcDbLine
 10
176.5
 20
16.69615173339844
 30
0.0
 11
176.5
 21
0.0
 31
0.0
  0
LINE
  5
38A
330
A
100
AcDbEntity
  8
0
  6
Continuous
 62
     0
370
    20
100
AcDbLine
 10
60.0000305175781
 20
33.138916015625
 30
0.0
 11
60.0000305175781
 21
0.0
 31
0.0
  0
LINE
  5
38B
330
A
100
AcDbEntity
  8
0
  6
Continuous
 62
     0
370
    20
100
AcDbLine
 10
88.00003051757812
 20
33.138916015625
 30
0.0
 11
88.00003051757812
 21
0.0
 31
0.0
  0
LINE
  5
394
330
A
100
AcDbEntity
  8
0
  6
Continuous
 62
     0
 60
     1
370
    20
100
AcDbLine
 10
-361.9163818359375
 20
279.9288330078125
 30
0.0
 11
-361.9163818359375
 21
284.9288330078125
 31
0.0
  0
LINE
  5
395
330
A
100
AcDbEntity
  8
0
  6
Continuous
 62
     0
 60
     1
370
    20
100
AcDbLine
 10
-369.4175415039063
 20
284.9288330078125
 30
0.0
 11
-361.9175415039062
 21
284.9288330078125
 31
0.0
  0
LINE
  5
396
330
A
100
AcDbEntity
  8
0
  6
Continuous
 62
     0
 60
     1
370
    20
100
AcDbLine
 10
-369.4175415039063
 20
284.5288696289062
 30
0.0
 11
-361.5175476074219
 21
284.5288696289062
 31
0.0
  0
LINE
  5
397
330
A
100
AcDbEntity
  8
0
  6
Continuous
 62
     0
 60
     1
370
    20
100
AcDbLine
 10
-369.4175415039063
 20
280.328857421875
 30
0.0
 11
-361.5175170898437
 21
280.328857421875
 31
0.0
  0
LINE
  5
398
330
A
100
AcDbEntity
  8
0
  6
Continuous
 62
     0
 60
     1
370
    20
100
AcDbLine
 10
-369.4175415039063
 20
279.9288330078125
 30
0.0
 11
-361.9175109863281
 21
279.9288330078125
 31
0.0
  0
LINE
  5
399
330
A
100
AcDbEntity
  8
0
  6
Continuous
 62
     0
 60
     1
370
    20
100
AcDbLine
 10
-361.9175109863281
 20
279.9288330078125
 30
0.0
 11
-359.717529296875
 21
279.9288330078125
 31
0.0
  0
LINE
  5
39A
330
A
100
AcDbEntity
  8
0
  6
Continuous
 62
     0
 60
     1
370
    20
100
AcDbLine
 10
-361.9175415039062
 20
284.9288330078125
 30
0.0
 11
-359.717529296875
 21
284.9288330078125
 31
0.0
  0
LINE
  5
39B
330
A
100
AcDbEntity
  8
0
  6
Continuous
 62
     0
 60
     1
370
    20
100
AcDbLine
 10
-361.5175476074219
 20
284.5288696289062
 30
0.0
 11
-354.717529296875
 21
284.5288696289062
 31
0.0
  0
LINE
  5
39C
330
A
100
AcDbEntity
  8
0
  6
Continuous
 62
     0
 60
     1
370
    20
100
AcDbLine
 10
-361.5175170898437
 20
280.328857421875
 30
0.0
 11
-354.717529296875
 21
280.328857421875
 31
0.0
  0
LINE
  5
39D
330
A
100
AcDbEntity
  8
0
  6
Continuous
 62
     0
 60
     1
370
    20
100
AcDbLine
 10
-370.4175415039062
 20
284.328857421875
 30
0.0
 11
-369.4175415039063
 21
284.328857421875
 31
0.0
  0
LINE
  5
39E
330
A
100
AcDbEntity
  8
0
  6
Continuous
 62
     0
 60
     1
370
    20
100
AcDbLine
 10
-370.4175415039062
 20
280.5288391113281
 30
0.0
 11
-369.4175415039063
 21
280.5288391113281
 31
0.0
  0
LINE
  5
39F
330
A
100
AcDbEntity
  8
0
  6
Continuous
 62
     0
 60
     1
370
    20
100
AcDbLine
 10
-369.4175415039063
 20
284.9288330078125
 30
0.0
 11
-369.4175415039063
 21
279.9288330078125
 31
0.0
  0
LINE
  5
3A0
330
A
100
AcDbEntity
  8
0
  6
Continuous
 62
     0
 60
     1
370
    20
100
AcDbLine
 10
-361.4175256428735
 20
280.4288376437034
 30
0.0
 11
-361.9175104530091
 21
279.9288375766391
 31
0.0
  0
LINE
  5
3A1
330
A
100
AcDbEntity
  8
0
  6
Continuous
 62
     0
 60
     1
370
    20
100
AcDbLine
 10
-361.9175283130919
 20
284.9288457757409
 30
0.0
 11
-361.4175169927042
 21
284.4288344553531
 31
0.0
  0
LINE
  5
3A2
330
A
100
AcDbEntity
  8
0
  6
Continuous
 62
     0
 60
     1
370
    20
100
AcDbLine
 10
-361.4175415039063
 20
284.4288330078125
 30
0.0
 11
-361.4175415039063
 21
280.4288330078125
 31
0.0
  0
LINE
  5
3A3
330
A
100
AcDbEntity
  8
0
  6
Continuous
 62
     0
 60
     1
370
    20
100
AcDbLine
 10
-359.7175110963044
 20
279.9287949057598
 30
0.0
 11
-359.0247013573107
 21
280.3287888022442
 31
0.0
  0
LINE
  5
3A4
330
A
100
AcDbEntity
  8
0
  6
Continuous
 62
     0
 60
     1
370
    20
100
AcDbLine
 10
-359.7175336712862
 20
284.9288473191336
 30
0.0
 11
-359.0247239322926
 21
284.5288534226493
 31
0.0
  0
LINE
  5
3A5
330
A
100
AcDbEntity
  8
0
  6
Continuous
 62
     0
 60
     1
370
    20
100
AcDbLine
 10
-354.7176086813871
 20
280.3288799290167
 30
0.0
 11
-353.5051720776285
 21
282.428881959695
 31
0.0
  0
LINE
  5
3A6
330
A
100
AcDbEntity
  8
0
  6
Continuous
 62
     0
 60
     1
370
    20
100
AcDbLine
 10
-354.7175587821794
 20
284.5288511530912
 30
0.0
 11
-353.5051259931179
 21
282.4288557296627
 31
0.0
  0
LINE
  5
3A7
330
A
100
AcDbEntity
  8
0
  6
Continuous
 62
     0
 60
     1
370
    20
100
AcDbLine
 10
-370.4175415039062
 20
280.328857421875
 30
0.0
 11
-369.4175415039063
 21
280.328857421875
 31
0.0
  0
LINE
  5
3A8
330
A
100
AcDbEntity
  8
0
  6
Continuous
 62
     0
 60
     1
370
    20
100
AcDbLine
 10
-370.4175415039062
 20
284.5288696289062
 30
0.0
 11
-369.4175415039063
 21
284.5288696289062
 31
0.0
  0
LINE
  5
3A9
330
A
100
AcDbEntity
  8
0
  6
Continuous
 62
     0
 60
     1
370
    20
100
AcDbLine
 10
-370.4175415039062
 20
284.9288330078125
 30
0.0
 11
-369.4175415039063
 21
284.9288330078125
 31
0.0
  0
LINE
  5
3AA
330
A
100
AcDbEntity
  8
0
  6
Continuous
 62
     0
 60
     1
370
    20
100
AcDbLine
 10
-370.4175415039062
 20
279.9288330078125
 30
0.0
 11
-369.4175415039063
 21
279.9288330078125
 31
0.0
  0
LINE
  5
3AB
330
A
100
AcDbEntity
  8
0
  6
Continuous
 62
     0
 60
     1
370
    20
100
AcDbLine
 10
-354.717529296875
 20
284.5288696289062
 30
0.0
 11
-354.717529296875
 21
280.328857421875
 31
0.0
  0
LINE
  5
3AC
330
A
100
AcDbEntity
  8
0
  6
Continuous
 62
     0
 60
     1
370
    20
100
AcDbLine
 10
-359.717529296875
 20
284.9288330078125
 30
0.0
 11
-359.717529296875
 21
279.9288330078125
 31
0.0
  0
LINE
  5
3AD
330
A
100
AcDbEntity
  8
0
  6
Continuous
 62
     0
 60
     1
370
    20
100
AcDbLine
 10
-370.4175415039062
 20
285.4288330078125
 30
0.0
 11
-370.4175415039062
 21
279.4288330078125
 31
0.0
  0
LINE
  5
3AE
330
A
100
AcDbEntity
  8
0
  6
Continuous
 62
     0
 60
     1
370
    20
100
AcDbLine
 10
-383.9163818359375
 20
269.9288330078125
 30
0.0
 11
-383.9163818359375
 21
274.9288330078125
 31
0.0
  0
LINE
  5
3AF
330
A
100
AcDbEntity
  8
0
  6
Continuous
 62
     0
 60
     1
370
    20
100
AcDbLine
 10
-391.4175415039062
 20
274.9288330078125
 30
0.0
 11
-383.9175415039063
 21
274.9288330078125
 31
0.0
  0
LINE
  5
3B0
330
A
100
AcDbEntity
  8
0
  6
Continuous
 62
     0
 60
     1
370
    20
100
AcDbLine
 10
-391.4175415039062
 20
274.5288696289062
 30
0.0
 11
-383.5175476074219
 21
274.5288696289062
 31
0.0
  0
LINE
  5
3B1
330
A
100
AcDbEntity
  8
0
  6
Continuous
 62
     0
 60
     1
370
    20
100
AcDbLine
 10
-391.4175415039062
 20
270.328857421875
 30
0.0
 11
-383.5175476074219
 21
270.328857421875
 31
0.0
  0
LINE
  5
3B2
330
A
100
AcDbEntity
  8
0
  6
Continuous
 62
     0
 60
     1
370
    20
100
AcDbLine
 10
-391.4175415039062
 20
269.9288330078125
 30
0.0
 11
-383.9175109863281
 21
269.9288330078125
 31
0.0
  0
LINE
  5
3B3
330
A
100
AcDbEntity
  8
0
  6
Continuous
 62
     0
 60
     1
370
    20
100
AcDbLine
 10
-383.9175415039063
 20
269.9288330078125
 30
0.0
 11
-381.7175598144531
 21
269.9288330078125
 31
0.0
  0
LINE
  5
3B4
330
A
100
AcDbEntity
  8
0
  6
Continuous
 62
     0
 60
     1
370
    20
100
AcDbLine
 10
-383.9175415039063
 20
274.9288330078125
 30
0.0
 11
-381.7175598144531
 21
274.9288330078125
 31
0.0
  0
LINE
  5
3B5
330
A
100
AcDbEntity
  8
0
  6
Continuous
 62
     0
 60
     1
370
    20
100
AcDbLine
 10
-383.5175476074219
 20
274.5288696289062
 30
0.0
 11
-376.7175598144531
 21
274.5288696289062
 31
0.0
  0
LINE
  5
3B6
330
A
100
AcDbEntity
  8
0
  6
Continuous
 62
     0
 60
     1
370
    20
100
AcDbLine
 10
-383.5175476074219
 20
270.328857421875
 30
0.0
 11
-376.7175598144531
 21
270.328857421875
 31
0.0
  0
LINE
  5
3B7
330
A
100
AcDbEntity
  8
0
  6
Continuous
 62
     0
 60
     1
370
    20
100
AcDbLine
 10
-392.4175415039062
 20
274.328857421875
 30
0.0
 11
-391.4175415039062
 21
274.328857421875
 31
0.0
  0
LINE
  5
3B8
330
A
100
AcDbEntity
  8
0
  6
Continuous
 62
     0
 60
     1
370
    20
100
AcDbLine
 10
-392.4175415039062
 20
270.5288391113281
 30
0.0
 11
-391.4175415039062
 21
270.5288391113281
 31
0.0
  0
LINE
  5
3B9
330
A
100
AcDbEntity
  8
0
  6
Continuous
 62
     0
 60
     1
370
    20
100
AcDbLine
 10
-391.4175415039062
 20
274.9288330078125
 30
0.0
 11
-391.4175415039062
 21
269.9288330078125
 31
0.0
  0
LINE
  5
3BA
330
A
100
AcDbEntity
  8
0
  6
Continuous
 62
     0
 60
     1
370
    20
100
AcDbLine
 10
-383.4175259064705
 20
270.4288366349465
 30
0.0
 11
-383.9175134139631
 21
269.9288338704428
 31
0.0
  0
LINE
  5
3BB
330
A
100
AcDbEntity
  8
0
  6
Continuous
 62
     0
 60
     1
370
    20
100
AcDbLine
 10
-383.9175381810696
 20
274.9288486468372
 30
0.0
 11
-383.4175268606819
 21
274.4288373264494
 31
0.0
  0
LINE
  5
3BC
330
A
100
AcDbEntity
  8
0
  6
Continuous
 62
     0
 60
     1
370
    20
100
AcDbLine
 10
-383.4175415039063
 20
274.4288330078125
 30
0.0
 11
-383.4175415039063
 21
270.4288330078125
 31
0.0
  0
LINE
  5
3BD
330
A
100
AcDbEntity
  8
0
  6
Continuous
 62
     0
 60
     1
370
    20
100
AcDbLine
 10
-381.7175072463152
 20
269.9288040760184
 30
0.0
 11
-381.0246975073214
 21
270.3287979725028
 31
0.0
  0
LINE
  5
3BE
330
A
100
AcDbEntity
  8
0
  6
Continuous
 62
     0
 60
     1
370
    20
100
AcDbLine
 10
-381.7175294636691
 20
274.9288393067516
 30
0.0
 11
-381.0247197246754
 21
274.5288454102672
 31
0.0
  0
LINE
  5
3BF
330
A
100
AcDbEntity
  8
0
  6
Continuous
 62
     0
 60
     1
370
    20
100
AcDbLine
 10
-376.7176028180973
 20
270.3288736296181
 30
0.0
 11
-375.5051662143387
 21
272.4288756602964
 31
0.0
  0
LINE
  5
3C0
330
A
100
AcDbEntity
  8
0
  6
Continuous
 62
     0
 60
     1
370
    20
100
AcDbLine
 10
-376.7175562961038
 20
274.5288611796318
 30
0.0
 11
-375.5051235070423
 21
272.4288657562033
 31
0.0
  0
LINE
  5
3C1
330
A
100
AcDbEntity
  8
0
  6
Continuous
 62
     0
 60
     1
370
    20
100
AcDbLine
 10
-392.4175415039062
 20
270.328857421875
 30
0.0
 11
-391.4175415039062
 21
270.328857421875
 31
0.0
  0
LINE
  5
3C2
330
A
100
AcDbEntity
  8
0
  6
Continuous
 62
     0
 60
     1
370
    20
100
AcDbLine
 10
-392.4175415039062
 20
274.5288696289062
 30
0.0
 11
-391.4175415039062
 21
274.5288696289062
 31
0.0
  0
LINE
  5
3C3
330
A
100
AcDbEntity
  8
0
  6
Continuous
 62
     0
 60
     1
370
    20
100
AcDbLine
 10
-392.4175415039062
 20
274.9288330078125
 30
0.0
 11
-391.4175415039062
 21
274.9288330078125
 31
0.0
  0
LINE
  5
3C4
330
A
100
AcDbEntity
  8
0
  6
Continuous
 62
     0
 60
     1
370
    20
100
AcDbLine
 10
-392.4175415039062
 20
269.9288330078125
 30
0.0
 11
-391.4175415039062
 21
269.9288330078125
 31
0.0
  0
LINE
  5
3C5
330
A
100
AcDbEntity
  8
0
  6
Continuous
 62
     0
 60
     1
370
    20
100
AcDbLine
 10
-376.7175598144531
 20
274.5288696289062
 30
0.0
 11
-376.7175598144531
 21
270.328857421875
 31
0.0
  0
LINE
  5
3C6
330
A
100
AcDbEntity
  8
0
  6
Continuous
 62
     0
 60
     1
370
    20
100
AcDbLine
 10
-381.7175598144531
 20
274.9288330078125
 30
0.0
 11
-381.7175598144531
 21
269.9288330078125
 31
0.0
  0
LINE
  5
3C7
330
A
100
AcDbEntity
  8
0
  6
Continuous
 62
     0
 60
     1
370
    20
100
AcDbLine
 10
-392.4175415039062
 20
275.4288330078125
 30
0.0
 11
-392.4175415039062
 21
269.4288330078125
 31
0.0
  0
LINE
  5
3C8
330
A
100
AcDbEntity
  8
0
  6
Continuous
 62
     0
370
    20
100
AcDbLine
 10
83.38677451257263
 20
44.99997738710499
 30
0.0
 11
81.94339217276956
 21
43.94342629726361
 31
0.0
  0
LINE
  5
3C9
330
A
100
AcDbEntity
  8
0
  6
Continuous
 62
     0
370
    20
100
AcDbLine
 10
81.94340015146305
 20
46.05652559764418
 30
0.0
 11
83.38675786605131
 21
44.99999253337842
 31
0.0
  0
LINE
  5
3CA
330
A
100
AcDbEntity
  8
0
  6
Continuous
 62
     0
370
    20
100
AcDbLine
 10
77.61325821177161
 20
44.99996467704838
 30
0.0
 11
79.05664055157467
 21
46.05651576688979
 31
0.0
  0
LINE
  5
3CB
330
A
100
AcDbEntity
  8
0
  6
Continuous
 62
     0
370
    20
100
AcDbLine
 10
77.61327624987551
 20
44.99997512691971
 30
0.0
 11
79.05660933924902
 21
43.94346008822958
 31
0.0
  0
LINE
  5
3CC
330
A
100
AcDbEntity
  8
0
  6
Continuous
 62
     0
370
    20
100
AcDbLine
 10
66.05662110400908
 20
43.94344528794727
 30
0.0
 11
64.61323876420603
 21
44.99999637778865
 31
0.0
  0
LINE
  5
3CD
330
A
100
AcDbEntity
  8
0
  6
Continuous
 62
     0
370
    20
100
AcDbLine
 10
68.94337480592094
 20
43.943429228274
 30
0.0
 11
70.386757145724
 21
44.99998031811538
 31
0.0
  0
LINE
  5
3CE
330
A
100
AcDbEntity
  8
0
  6
Continuous
 62
     0
370
    20
100
AcDbLine
 10
68.94336717218743
 20
46.0565530048168
 30
0.0
 11
70.3867495119905
 21
45.00000191497544
 31
0.0
  0
LINE
  5
3CF
330
A
100
AcDbEntity
  8
0
  6
Continuous
 62
     0
370
    20
100
AcDbLine
 10
64.61325315753038
 20
44.9999766208466
 30
0.0
 11
66.05663549733344
 21
46.05652771068799
 31
0.0
  0
LINE
  5
3D0
330
A
100
AcDbEntity
  8
0
  6
Continuous
 62
     0
370
    20
100
AcDbLine
 10
79.056640625
 20
46.05653381347656
 30
0.0
 11
81.94338989257813
 21
46.05653381347656
 31
0.0
  0
LINE
  5
3D1
330
A
100
AcDbEntity
  8
0
  6
Continuous
 62
     0
370
    20
100
AcDbLine
 10
79.056640625
 20
43.94343566894531
 30
0.0
 11
81.94338989257813
 21
43.94343566894531
 31
0.0
  0
LINE
  5
3D2
330
A
100
AcDbEntity
  8
0
  6
Continuous
 62
     0
370
    20
100
AcDbLine
 10
79.056640625
 20
46.05653381347656
 30
0.0
 11
79.056640625
 21
43.94343566894531
 31
0.0
  0
LINE
  5
3D3
330
A
100
AcDbEntity
  8
0
  6
Continuous
 62
     0
370
    20
100
AcDbLine
 10
81.94338989257813
 20
46.05653381347656
 30
0.0
 11
81.94338989257813
 21
43.94343566894531
 31
0.0
  0
LINE
  5
3D4
330
A
100
AcDbEntity
  8
0
  6
Continuous
 62
     0
370
    20
100
AcDbLine
 10
66.05661010742188
 20
46.05653381347656
 30
0.0
 11
66.05661010742188
 21
43.94343566894531
 31
0.0
  0
LINE
  5
3D5
330
A
100
AcDbEntity
  8
0
  6
Continuous
 62
     0
370
    20
100
AcDbLine
 10
68.94338989257811
 20
46.05653381347656
 30
0.0
 11
68.94338989257811
 21
43.94343566894531
 31
0.0
  0
LINE
  5
3D6
330
A
100
AcDbEntity
  8
0
  6
Continuous
 62
     0
370
    20
100
AcDbLine
 10
66.05661010742188
 20
43.94343566894531
 30
0.0
 11
68.94338989257811
 21
43.94343566894531
 31
0.0
  0
LINE
  5
3D7
330
A
100
AcDbEntity
  8
0
  6
Continuous
 62
     0
370
    20
100
AcDbLine
 10
66.05661010742188
 20
46.05653381347656
 30
0.0
 11
68.94338989257811
 21
46.05653381347656
 31
0.0
  0
LINE
  5
3D8
330
A
100
AcDbEntity
  8
0
  6
Continuous
 62
     0
370
    20
100
AcDbLine
 10
85.5
 20
45.0
 30
0.0
 11
85.5
 21
44.39637756347656
 31
0.0
  0
LINE
  5
3D9
330
A
100
AcDbEntity
  8
0
  6
Continuous
 62
     0
370
    20
100
AcDbLine
 10
75.5
 20
45.0
 30
0.0
 11
75.5
 21
44.39637756347656
 31
0.0
  0
LINE
  5
3DA
330
A
100
AcDbEntity
  8
0
  6
Continuous
 62
     0
370
    20
100
AcDbLine
 10
72.5
 20
45.0
 30
0.0
 11
72.5
 21
44.39637756347656
 31
0.0
  0
LINE
  5
3DB
330
A
100
AcDbEntity
  8
0
  6
Continuous
 62
     0
370
    20
100
AcDbLine
 10
62.5
 20
45.0
 30
0.0
 11
62.5
 21
44.39637756347656
 31
0.0
  0
LINE
  5
3F8
330
A
100
AcDbEntity
  8
0
  6
Continuous
 62
     0
370
    20
100
AcDbLine
 10
51.9998779296875
 20
34.0
 30
0.0
 11
56.9998779296875
 21
34.0
 31
0.0
  0
LINE
  5
3F9
330
A
100
AcDbEntity
  8
0
  6
Continuous
 62
     0
370
    20
100
AcDbLine
 10
56.9998779296875
 20
34.0
 30
0.0
 11
56.9998779296875
 21
56.0
 31
0.0
  0
LINE
  5
3FA
330
A
100
AcDbEntity
  8
0
  6
Continuous
 62
     0
370
    20
100
AcDbLine
 10
56.9998779296875
 20
56.0
 30
0.0
 11
60.0
 21
56.0
 31
0.0
  0
LINE
  5
412
330
A
100
AcDbEntity
  8
0
  6
Continuous
 62
     0
370
    20
100
AcDbLine
 10
39.0
 20
40.0
 30
0.0
 11
49.0
 21
40.0
 31
0.0
  0
LINE
  5
413
330
A
100
AcDbEntity
  8
0
  6
Continuous
 62
     0
370
    20
100
AcDbLine
 10
15.70001220703125
 20
-49.81643676757812
 30
0.0
 11
15.70001220703125
 21
0.0
 31
0.0
  0
LINE
  5
414
330
A
100
AcDbEntity
  8
0
  6
Continuous
 62
     0
370
    20
100
AcDbLine
 10
15.70001220703125
 20
49.81643676757812
 30
0.0
 11
15.70001220703125
 21
0.0
 31
0.0
  0
LINE
  5
41E
330
A
100
AcDbEntity
  8
0
  6
Continuous
 62
     0
370
    20
100
AcDbLine
 10
3.0
 20
-48.99996948242185
 30
0.0
 11
3.0
 21
0.0
 31
0.0
  0
LINE
  5
41F
330
A
100
AcDbEntity
  8
0
  6
Continuous
 62
     0
370
    20
100
AcDbLine
 10
39.0
 20
-40.0
 30
0.0
 11
39.0
 21
0.0
 31
0.0
  0
LINE
  5
420
330
A
100
AcDbEntity
  8
0
  6
Continuous
 62
     0
370
    20
100
AcDbLine
 10
38.00010693683544
 20
-38.99991320711888
 30
0.0
 11
39.00013724851124
 21
-39.99992826128983
 31
0.0
  0
LINE
  5
421
330
A
100
AcDbEntity
  8
0
  6
Continuous
 62
     0
370
    20
100
AcDbLine
 10
39.0
 20
-40.0
 30
0.0
 11
49.0
 21
-40.0
 31
0.0
  0
LINE
  5
422
330
A
100
AcDbEntity
  8
0
  6
DASHED
 62
     0
370
    20
100
AcDbLine
 10
3.0
 20
-35.39999389648438
 30
0.0
 11
34.0
 21
-35.39999389648438
 31
0.0
  0
LINE
  5
423
330
A
100
AcDbEntity
  8
0
  6
DASHED
 62
     0
370
    20
100
AcDbLine
 10
34.0
 20
-49.99995422363281
 30
0.0
 11
34.0
 21
-35.39999389648438
 31
0.0
  0
LINE
  5
424
330
A
100
AcDbEntity
  8
0
  6
Continuous
 62
     0
370
    20
100
AcDbLine
 10
38.00003051757812
 20
-48.99996948242185
 30
0.0
 11
38.00003051757812
 21
0.0
 31
0.0
  0
LINE
  5
425
330
A
100
AcDbEntity
  8
0
  6
Continuous
 62
     0
370
    20
100
AcDbLine
 10
-100.5450034696133
 20
-20.17544063843207
 30
0.0
 11
0.3999856228782619
 21
-34.98345547462804
 31
0.0
  0
LINE
  5
426
330
A
100
AcDbEntity
  8
0
  6
Continuous
 62
     0
370
    20
100
AcDbLine
 10
19.70001220703125
 20
-42.49995422363281
 30
0.0
 11
26.70004272460938
 21
-42.49995422363281
 31
0.0
  0
LINE
  5
427
330
A
100
AcDbEntity
  8
0
  6
Continuous
 62
     0
370
    20
100
AcDbLine
 10
30.70001220703125
 20
-49.81643676757812
 30
0.0
 11
30.70001220703125
 21
0.0
 31
0.0
  0
LINE
  5
428
330
A
100
AcDbEntity
  8
0
  6
Continuous
 62
     0
370
    20
100
AcDbLine
 10
26.70004272460938
 20
-43.07194519042968
 30
0.0
 11
26.70004272460938
 21
0.0
 31
0.0
  0
LINE
  5
429
330
A
100
AcDbEntity
  8
0
  6
Continuous
 62
     0
370
    20
100
AcDbLine
 10
19.70001220703125
 20
-43.07162475585935
 30
0.0
 11
19.70001220703125
 21
0.0
 31
0.0
  0
LINE
  5
42A
330
A
100
AcDbEntity
  8
0
  6
Continuous
 62
     0
370
    20
100
AcDbLine
 10
0.4000244140625
 20
-34.98341369628906
 30
0.0
 11
0.4000244140625
 21
0.000030517578125
 31
0.0
  0
LINE
  5
42B
330
A
100
AcDbEntity
  8
0
  6
Continuous
 62
     0
370
    20
100
AcDbLine
 10
31.27737426757813
 20
-49.99995422363281
 30
0.0
 11
37.00003051757813
 21
-49.99995422363281
 31
0.0
  0
LINE
  5
42C
330
A
100
AcDbEntity
  8
0
  6
Continuous
 62
     0
370
    20
100
AcDbLine
 10
15.98841785072181
 20
-49.49988429474251
 30
0.0
 11
19.69975655260668
 21
-43.07162352008435
 31
0.0
  0
LINE
  5
42D
330
A
100
AcDbEntity
  8
0
  6
Continuous
 62
     0
370
    20
100
AcDbLine
 10
26.69983370229056
 20
-43.07193681047102
 30
0.0
 11
30.41116461745696
 21
-49.50012307740144
 31
0.0
  0
LINE
  5
42E
330
A
100
AcDbEntity
  8
0
  6
Continuous
 62
     0
370
    20
100
AcDbLine
 10
4.0
 20
-49.99995422363281
 30
0.0
 11
15.1226806640625
 21
-49.99995422363281
 31
0.0
  0
LINE
  5
42F
330
A
100
AcDbEntity
  8
0
  6
Continuous
 62
     0
370
    20
100
AcDbLine
 10
0.4000244140625
 20
-34.49995422363282
 30
0.0
 11
3.0
 21
-34.49995422363282
 31
0.0
  0
LINE
  5
432
330
A
100
AcDbEntity
  8
0
  6
PHANTOM
 62
     0
370
    20
100
AcDbLine
 10
0.0
 20
38.02003479003906
 30
0.0
 11
0.0
 21
-37.65516662597657
 31
0.0
  0
LINE
  5
437
330
A
100
AcDbEntity
  8
0
  6
Continuous
 62
     0
370
    20
100
AcDbLine
 10
60.0000305175781
 20
33.138916015625
 30
0.0
 11
60.0000305175781
 21
47.99998474121093
 31
0.0
  0
LINE
  5
438
330
A
100
AcDbEntity
  8
0
  6
Continuous
 62
     0
370
    20
100
AcDbLine
 10
60.0000305175781
 20
47.99998474121093
 30
0.0
 11
60.0000305175781
 21
33.138916015625
 31
0.0
  0
LINE
  5
439
330
A
100
AcDbEntity
  8
0
  6
Continuous
 62
     0
370
    20
100
AcDbLine
 10
3.0
 20
48.99996948242185
 30
0.0
 11
3.0
 21
0.0
 31
0.0
  0
LINE
  5
43A
330
A
100
AcDbEntity
  8
0
  6
Continuous
 62
     0
370
    20
100
AcDbLine
 10
52.00003051757811
 20
-14.0
 30
0.0
 11
52.00003051757811
 21
0.0
 31
0.0
  0
LINE
  5
43B
330
A
100
AcDbEntity
  8
0
  6
Continuous
 62
     0
370
    20
100
AcDbLine
 10
52.00003051757811
 20
14.0
 30
0.0
 11
52.00003051757811
 21
0.0
 31
0.0
  0
LINE
  5
43C
330
A
100
AcDbEntity
  8
0
  6
Continuous
 62
     0
370
    20
100
AcDbLine
 10
49.00009812101598
 20
-40.00007059948075
 30
0.0
 11
50.00009918260547
 21
-39.00006953789125
 31
0.0
  0
LINE
  5
43D
330
A
100
AcDbEntity
  8
0
  6
Continuous
 62
     0
370
    20
100
AcDbLine
 10
49.0
 20
40.0
 30
0.0
 11
49.0
 21
-40.0
 31
0.0
  0
LINE
  5
43E
330
A
100
AcDbEntity
  8
0
  6
Continuous
 62
     0
370
    20
100
AcDbLine
 10
39.0
 20
40.0
 30
0.0
 11
39.0
 21
0.0
 31
0.0
  0
LINE
  5
43F
330
A
100
AcDbEntity
  8
0
  6
Continuous
 62
     0
370
    20
100
AcDbLine
 10
49.00012509499855
 20
39.99999814328976
 30
0.0
 11
50.00012615658807
 21
38.99999708170026
 31
0.0
  0
LINE
  5
440
330
A
100
AcDbEntity
  8
0
  6
Continuous
 62
     0
370
    20
100
AcDbLine
 10
38.00012960190361
 20
38.9998837909734
 30
0.0
 11
39.00013066349311
 21
39.9998848525629
 31
0.0
  0
LINE
  5
441
330
A
100
AcDbEntity
  8
0
  6
Continuous
 62
     0
370
    20
100
AcDbLine
 10
50.0000305175781
 20
39.0
 30
0.0
 11
50.0000305175781
 21
-39.0
 31
0.0
  0
LINE
  5
442
330
A
100
AcDbEntity
  8
0
  6
Continuous
 62
     0
370
    20
100
AcDbLine
 10
52.00003051757811
 20
20.0
 30
0.0
 11
52.00003051757811
 21
-20.0
 31
0.0
  0
LINE
  5
443
330
A
100
AcDbEntity
  8
0
  6
DASHED
 62
     0
370
    20
100
AcDbLine
 10
3.0
 20
35.39999389648438
 30
0.0
 11
34.0
 21
35.39999389648438
 31
0.0
  0
LINE
  5
444
330
A
100
AcDbEntity
  8
0
  6
DASHED
 62
     0
370
    20
100
AcDbLine
 10
34.0
 20
49.99995422363281
 30
0.0
 11
34.0
 21
35.39999389648438
 31
0.0
  0
LINE
  5
445
330
A
100
AcDbEntity
  8
0
  6
Continuous
 62
     0
370
    20
100
AcDbLine
 10
38.00003051757812
 20
48.99996948242185
 30
0.0
 11
38.00003051757812
 21
0.0
 31
0.0
  0
LINE
  5
446
330
A
100
AcDbEntity
  8
0
  6
Continuous
 62
     0
370
    20
100
AcDbLine
 10
-101.3999633789062
 20
-19.18600463867187
 30
0.0
 11
-101.3999633789062
 21
0.000030517578125
 31
0.0
  0
LINE
  5
447
330
A
100
AcDbEntity
  8
0
  6
Continuous
 62
     0
370
    20
100
AcDbLine
 10
-100.545130129673
 20
20.17542662074402
 30
0.0
 11
0.3999797405354002
 21
34.98345613369976
 31
0.0
  0
LINE
  5
448
330
A
100
AcDbEntity
  8
0
  6
Continuous
 62
     0
370
    20
100
AcDbLine
 10
-101.3999633789062
 20
19.18600463867187
 30
0.0
 11
-101.3999633789062
 21
-0.000030517578125
 31
0.0
  0
LINE
  5
449
330
A
100
AcDbEntity
  8
0
  6
Continuous
 62
     0
370
    20
100
AcDbLine
 10
19.70001220703125
 20
42.49995422363281
 30
0.0
 11
26.70004272460938
 21
42.49995422363281
 31
0.0
  0
LINE
  5
44A
330
A
100
AcDbEntity
  8
0
  6
Continuous
 62
     0
370
    20
100
AcDbLine
 10
30.70001220703125
 20
49.81643676757812
 30
0.0
 11
30.70001220703125
 21
0.0
 31
0.0
  0
LINE
  5
44B
330
A
100
AcDbEntity
  8
0
  6
Continuous
 62
     0
370
    20
100
AcDbLine
 10
26.70004272460938
 20
43.07194519042968
 30
0.0
 11
26.70004272460938
 21
0.0
 31
0.0
  0
LINE
  5
44C
330
A
100
AcDbEntity
  8
0
  6
Continuous
 62
     0
370
    20
100
AcDbLine
 10
19.70001220703125
 20
43.07162475585935
 30
0.0
 11
19.70001220703125
 21
0.0
 31
0.0
  0
LINE
  5
44D
330
A
100
AcDbEntity
  8
0
  6
Continuous
 62
     0
370
    20
100
AcDbLine
 10
0.4000244140625
 20
34.98341369628906
 30
0.0
 11
0.4000244140625
 21
-0.000030517578125
 31
0.0
  0
LINE
  5
44E
330
A
100
AcDbEntity
  8
0
  6
Continuous
 62
     0
370
    20
100
AcDbLine
 10
31.27737426757813
 20
49.99995422363281
 30
0.0
 11
37.00003051757813
 21
49.99995422363281
 31
0.0
  0
LINE
  5
44F
330
A
100
AcDbEntity
  8
0
  6
Continuous
 62
     0
370
    20
100
AcDbLine
 10
15.98855205958989
 20
49.49997889827045
 30
0.0
 11
19.69990198932191
 21
43.07173313698966
 31
0.0
  0
LINE
  5
450
330
A
100
AcDbEntity
  8
0
  6
Continuous
 62
     0
370
    20
100
AcDbLine
 10
26.69981849346561
 20
43.07188110079084
 30
0.0
 11
30.41113790561587
 21
49.50007400407674
 31
0.0
  0
LINE
  5
451
330
A
100
AcDbEntity
  8
0
  6
Continuous
 62
     0
370
    20
100
AcDbLine
 10
4.0
 20
49.99995422363281
 30
0.0
 11
15.1226806640625
 21
49.99995422363281
 31
0.0
  0
LINE
  5
452
330
A
100
AcDbEntity
  8
0
  6
Continuous
 62
     0
370
    20
100
AcDbLine
 10
0.4000244140625
 20
34.49995422363282
 30
0.0
 11
3.0
 21
34.49995422363282
 31
0.0
  0
LINE
  5
454
330
A
100
AcDbEntity
  8
0
  6
Continuous
 62
     0
370
    20
100
AcDbLine
 10
60.0000305175781
 20
-40.0
 30
0.0
 11
88.00003051757812
 21
-40.0
 31
0.0
  0
LINE
  5
455
330
A
100
AcDbEntity
  8
0
  6
Continuous
 62
     0
370
    20
100
AcDbLine
 10
60.0000305175781
 20
32.138916015625
 30
0.0
 11
60.0000305175781
 21
47.99998474121093
 31
0.0
  0
LINE
  5
457
330
A
100
AcDbEntity
  8
0
  6
Continuous
 62
     0
370
    20
100
AcDbLine
 10
52.58460027673027
 20
8.263481092622896
 30
0.0
 11
59.99974424689391
 21
-9.678788443652591
 31
0.0
  0
LINE
  5
458
330
A
100
AcDbEntity
  8
0
  6
Continuous
 62
     0
370
    20
100
AcDbLine
 10
59.99965348321302
 20
9.678874432847123
 30
0.0
 11
52.58450659903838
 21
-8.263402154400182
 31
0.0
  0
LINE
  5
459
330
A
100
AcDbEntity
  8
0
  6
Continuous
 62
     0
370
    20
100
AcDbLine
 10
52.00005332899127
 20
-7.67865700039874
 30
0.0
 11
54.00007736853513
 21
-9.678680365585023
 31
0.0
  0
LINE
  5
45A
330
A
100
AcDbEntity
  8
0
  6
Continuous
 62
     0
370
    20
100
AcDbLine
 10
54.0
 20
-19.0
 30
0.0
 11
54.0
 21
-9.6787109375
 31
0.0
  0
LINE
  5
45B
330
A
100
AcDbEntity
  8
0
  6
Continuous
 62
     0
370
    20
100
AcDbLine
 10
54.0
 20
-9.6787109375
 30
0.0
 11
60.0000305175781
 21
-9.6787109375
 31
0.0
  0
LINE
  5
45C
330
A
100
AcDbEntity
  8
0
  6
Continuous
 62
     0
370
    20
100
AcDbLine
 10
52.00026091697873
 20
-16.99985055089746
 30
0.0
 11
54.0002849565226
 21
-18.99987408467314
 31
0.0
  0
LINE
  5
45D
330
A
100
AcDbEntity
  8
0
  6
Continuous
 62
     0
370
    20
100
AcDbLine
 10
54.0
 20
-19.0
 30
0.0
 11
60.0000305175781
 21
-19.0
 31
0.0
  0
LINE
  5
45E
330
A
100
AcDbEntity
  8
0
  6
Continuous
 62
     0
370
    20
100
AcDbLine
 10
141.5
 20
-36.0
 30
0.0
 11
141.5
 21
0.0
 31
0.0
  0
LINE
  5
45F
330
A
100
AcDbEntity
  8
0
  6
Continuous
 62
     0
370
    20
100
AcDbLine
 10
88.00003051757812
 20
-40.0
 30
0.0
 11
88.00003051757812
 21
0.0
 31
0.0
  0
LINE
  5
460
330
A
100
AcDbEntity
  8
0
  6
Continuous
 62
     0
370
    20
100
AcDbLine
 10
60.0000305175781
 20
-40.0
 30
0.0
 11
60.0000305175781
 21
0.0
 31
0.0
  0
LINE
  5
461
330
A
100
AcDbEntity
  8
0
  6
Continuous
 62
     0
370
    20
100
AcDbLine
 10
88.00020426056471
 20
-40.00015691622502
 30
0.0
 11
92.00020850692272
 21
-36.00015266986703
 31
0.0
  0
LINE
  5
462
330
A
100
AcDbEntity
  8
0
  6
Continuous
 62
     0
370
    20
100
AcDbLine
 10
92.00003051757812
 20
-36.0
 30
0.0
 11
92.00003051757812
 21
0.0
 31
0.0
  0
LINE
  5
463
330
A
100
AcDbEntity
  8
0
  6
Continuous
 62
     0
370
    20
100
AcDbLine
 10
141.5001100013005
 20
-36.000141880274
 30
0.0
 11
143.5001337036656
 21
-34.00011817790892
 31
0.0
  0
LINE
  5
464
330
A
100
AcDbEntity
  8
0
  6
Continuous
 62
     0
370
    20
100
AcDbLine
 10
92.00003051757812
 20
-36.0
 30
0.0
 11
141.5000610351562
 21
-36.0
 31
0.0
  0
LINE
  5
465
330
A
100
AcDbEntity
  8
0
  6
Continuous
 62
     0
370
    20
100
AcDbLine
 10
143.5000305175781
 20
-34.0
 30
0.0
 11
143.5000305175781
 21
0.0
 31
0.0
  0
LINE
  5
466
330
A
100
AcDbEntity
  8
0
  6
Continuous
 62
     0
370
    20
100
AcDbLine
 10
51.99979046197768
 20
7.678970034226947
 30
0.0
 11
53.99979275374426
 21
9.678972157405953
 31
0.0
  0
LINE
  5
467
330
A
100
AcDbEntity
  8
0
  6
Continuous
 62
     0
370
    20
100
AcDbLine
 10
54.0
 20
19.0
 30
0.0
 11
54.0
 21
9.6787109375
 31
0.0
  0
LINE
  5
468
330
A
100
AcDbEntity
  8
0
  6
Continuous
 62
     0
370
    20
100
AcDbLine
 10
54.0
 20
9.6787109375
 30
0.0
 11
60.0000305175781
 21
9.6787109375
 31
0.0
  0
LINE
  5
469
330
A
100
AcDbEntity
  8
0
  6
Continuous
 62
     0
370
    20
100
AcDbLine
 10
54.0000305175781
 20
19.0
 30
0.0
 11
60.0000305175781
 21
19.0
 31
0.0
  0
LINE
  5
46A
330
A
100
AcDbEntity
  8
0
  6
Continuous
 62
     0
370
    20
100
AcDbLine
 10
141.5
 20
36.0
 30
0.0
 11
141.5
 21
0.0
 31
0.0
  0
LINE
  5
46B
330
A
100
AcDbEntity
  8
0
  6
Continuous
 62
     0
370
    20
100
AcDbLine
 10
88.00003051757812
 20
66.72109985351561
 30
0.0
 11
88.00003051757812
 21
33.138916015625
 31
0.0
  0
LINE
  5
46C
330
A
100
AcDbEntity
  8
0
  6
Continuous
 62
     0
370
    20
100
AcDbLine
 10
60.0000305175781
 20
40.0
 30
0.0
 11
60.0000305175781
 21
0.0
 31
0.0
  0
LINE
  5
46D
330
A
100
AcDbEntity
  8
0
  6
Continuous
 62
     0
370
    20
100
AcDbLine
 10
88.00003552757834
 20
39.99994912924194
 30
0.0
 11
92.0000401111115
 21
35.99994488288394
 31
0.0
  0
LINE
  5
46E
330
A
100
AcDbEntity
  8
0
  6
Continuous
 62
     0
370
    20
100
AcDbLine
 10
92.00003051757812
 20
36.0
 30
0.0
 11
92.00003051757812
 21
0.0
 31
0.0
  0
LINE
  5
46F
330
A
100
AcDbEntity
  8
0
  6
Continuous
 62
     0
370
    20
100
AcDbLine
 10
141.5000371715475
 20
35.99994804116136
 30
0.0
 11
143.4999961363544
 21
33.99998907635449
 31
0.0
  0
LINE
  5
470
330
A
100
AcDbEntity
  8
0
  6
Continuous
 62
     0
370
    20
100
AcDbLine
 10
92.00003051757812
 20
36.0
 30
0.0
 11
141.5000610351562
 21
36.0
 31
0.0
  0
LINE
  5
471
330
A
100
AcDbEntity
  8
0
  6
Continuous
 62
     0
370
    20
100
AcDbLine
 10
143.5000305175781
 20
34.0
 30
0.0
 11
143.5000305175781
 21
0.0
 31
0.0
  0
LINE
  5
472
330
A
100
AcDbEntity
  8
0
  6
Continuous
 62
     0
370
    20
100
AcDbLine
 10
52.00003051757811
 20
-16.99978637695312
 30
0.0
 11
52.00003051757811
 21
17.0
 31
0.0
  0
LINE
  5
475
330
A
100
AcDbEntity
  8
0
  6
Continuous
 62
     0
370
    20
100
AcDbLine
 10
39.9998779296875
 20
55.0
 30
0.0
 11
44.9998779296875
 21
55.0
 31
0.0
  0
LINE
  5
476
330
A
100
AcDbEntity
  8
0
  6
Continuous
 62
     0
370
    20
100
AcDbLine
 10
60.0
 20
57.00001525878906
 30
0.0
 11
61.9998779296875
 21
57.00001525878906
 31
0.0
  0
LINE
  5
477
330
A
100
AcDbEntity
  8
0
  6
Continuous
 62
     0
370
    20
100
AcDbLine
 10
60.0
 20
62.99998474121093
 30
0.0
 11
61.9998779296875
 21
62.99998474121093
 31
0.0
  0
LINE
  5
47B
330
A
100
AcDbEntity
  8
0
  6
Continuous
 62
     0
370
    20
100
AcDbLine
 10
60.0
 20
56.0
 30
0.0
 11
60.0
 21
96.0
 31
0.0
  0
LINE
  5
47D
330
A
100
AcDbEntity
  8
0
  6
Continuous
 62
     0
370
    20
100
AcDbLine
 10
51.9998779296875
 20
34.0
 30
0.0
 11
51.9998779296875
 21
96.0
 31
0.0
  0
LINE
  5
47E
330
A
100
AcDbEntity
  8
0
  6
Continuous
 62
     0
370
    20
100
AcDbLine
 10
61.9998779296875
 20
47.99998474121093
 30
0.0
 11
61.9998779296875
 21
96.0
 31
0.0
  0
LINE
  5
481
330
A
100
AcDbEntity
  8
0
  6
Continuous
 62
     0
370
    20
100
AcDbLine
 10
60.9998779296875
 20
41.35064697265625
 30
0.0
 11
86.9998779296875
 21
41.35064697265625
 31
0.0
  0
LINE
  5
482
330
A
100
AcDbEntity
  8
0
  6
Continuous
 62
     0
370
    20
100
AcDbLine
 10
61.00003051757813
 20
32.138916015625
 30
0.0
 11
87.00003051757812
 21
32.138916015625
 31
0.0
  0
LINE
  5
484
330
A
100
AcDbEntity
  8
0
  6
Continuous
 62
     0
370
    20
100
AcDbLine
 10
44.9998779296875
 20
57.00001525878906
 30
0.0
 11
51.9998779296875
 21
57.00001525878906
 31
0.0
  0
LINE
  5
486
330
A
100
AcDbEntity
  8
0
  6
Continuous
 62
     0
370
    20
100
AcDbLine
 10
44.9998779296875
 20
62.99998474121093
 30
0.0
 11
51.9998779296875
 21
62.99998474121093
 31
0.0
  0
LINE
  5
487
330
A
100
AcDbEntity
  8
0
  6
Continuous
 62
     0
370
    20
100
AcDbLine
 10
39.9998779296875
 20
65.0
 30
0.0
 11
44.9998779296875
 21
65.0
 31
0.0
  0
LINE
  5
488
330
A
100
AcDbEntity
  8
0
  6
Continuous
 62
     0
370
    20
100
AcDbLine
 10
39.999755859375
 20
55.0
 30
0.0
 11
39.999755859375
 21
65.0
 31
0.0
  0
LINE
  5
489
330
A
100
AcDbEntity
  8
0
  6
Continuous
 62
     0
370
    20
100
AcDbLine
 10
44.999755859375
 20
55.0
 30
0.0
 11
44.999755859375
 21
65.0
 31
0.0
  0
LINE
  5
490
330
A
100
AcDbEntity
  8
0
  6
Continuous
 62
     0
370
    20
100
AcDbLine
 10
51.9998779296875
 20
96.0
 30
0.0
 11
60.0
 21
96.0
 31
0.0
  0
LINE
  5
496
330
A
100
AcDbEntity
  8
0
  6
DASHED
 62
     0
370
    20
100
AcDbLine
 10
61.9998779296875
 20
84.09999084472657
 30
0.0
 11
61.9998779296875
 21
80.0
 31
0.0
  0
LINE
  5
49C
330
A
100
AcDbEntity
  8
0
  6
Continuous
 62
     0
370
    20
100
AcDbLine
 10
51.9998779296875
 20
89.99998474121094
 30
0.0
 11
51.9998779296875
 21
80.0
 31
0.0
  0
LINE
  5
4A2
330
A
100
AcDbEntity
  8
0
  6
DASHED
 62
     0
370
    20
100
AcDbLine
 10
61.9998779296875
 20
75.89997863769531
 30
0.0
 11
61.9998779296875
 21
80.0
 31
0.0
  0
LINE
  5
4A3
330
A
100
AcDbEntity
  8
0
  6
Continuous
 62
     0
370
    20
100
AcDbLine
 10
51.9998779296875
 20
70.0
 30
0.0
 11
51.9998779296875
 21
80.0
 31
0.0
  0
LINE
  5
4A6
330
A
100
AcDbEntity
  8
0
  6
Continuous
 62
     0
370
    20
100
AcDbLine
 10
90.0
 20
64.0
 30
0.0
 11
90.9998779296875
 21
64.0
 31
0.0
  0
LINE
  5
4A7
330
A
100
AcDbEntity
  8
0
  6
Continuous
 62
     0
370
    20
100
AcDbLine
 10
60.0
 20
47.99998474121093
 30
0.0
 11
61.9998779296875
 21
47.99998474121093
 31
0.0
  0
LINE
  5
4A8
330
A
100
AcDbEntity
  8
0
  6
Continuous
 62
     0
370
    20
100
AcDbLine
 10
61.9998779296875
 20
96.0
 30
0.0
 11
90.9998779296875
 21
96.0
 31
0.0
  0
LINE
  5
4A9
330
A
100
AcDbEntity
  8
0
  6
Continuous
 62
     0
370
    20
100
AcDbLine
 10
91.9998779296875
 20
65.0
 30
0.0
 11
91.9998779296875
 21
94.99996948242188
 31
0.0
  0
LINE
  5
4AD
330
A
100
AcDbEntity
  8
0
  6
DASHED
 62
     0
370
    20
100
AcDbLine
 10
61.9998779296875
 20
84.09999084472657
 30
0.0
 11
61.9998779296875
 21
80.0
 31
0.0
  0
LINE
  5
4AF
330
A
100
AcDbEntity
  8
0
  6
DASHED
 62
     0
370
    20
100
AcDbLine
 10
61.9998779296875
 20
75.89997863769531
 30
0.0
 11
61.9998779296875
 21
80.0
 31
0.0
  0
POINT
  5
4B7
330
A
100
AcDbEntity
  8
0
  6
Continuous
 62
     0
 60
     1
370
    20
100
AcDbPoint
 10
7.0
 20
0.0
 30
0.0
  0
POINT
  5
4B8
330
A
100
AcDbEntity
  8
0
  6
Continuous
 62
     0
 60
     1
370
    20
100
AcDbPoint
 10
-127.6266403198242
 20
62.99702453613281
 30
0.0
  0
POINT
  5
4B9
330
A
100
AcDbEntity
  8
0
  6
Continuous
 62
     0
 60
     1
370
    20
100
AcDbPoint
 10
-152.6266479492187
 20
94.2470245361328
 30
0.0
  0
POINT
  5
4BA
330
A
100
AcDbEntity
  8
0
  6
Continuous
 62
     0
 60
     1
370
    20
100
AcDbPoint
 10
-242.6266479492188
 20
114.2470245361328
 30
0.0
  0
POINT
  5
4BB
330
A
100
AcDbEntity
  8
0
  6
Continuous
 62
     0
 60
     1
370
    20
100
AcDbPoint
 10
-142.6266479492187
 20
94.2470245361328
 30
0.0
  0
POINT
  5
4BC
330
A
100
AcDbEntity
  8
0
  6
Continuous
 62
     0
 60
     1
370
    20
100
AcDbPoint
 10
-215.1599578857422
 20
78.24568176269531
 30
0.0
  0
POINT
  5
4BD
330
A
100
AcDbEntity
  8
0
  6
Continuous
 62
     0
 60
     1
370
    20
100
AcDbPoint
 10
-174.6266479492186
 20
34.24702453613281
 30
0.0
  0
POINT
  5
4BE
330
A
100
AcDbEntity
  8
0
  6
Continuous
 62
     0
 60
     1
370
    20
100
AcDbPoint
 10
-264.6266479492187
 20
104.2470245361328
 30
0.0
  0
POINT
  5
4BF
330
A
100
AcDbEntity
  8
0
  6
Continuous
 62
     0
 60
     1
370
    20
100
AcDbPoint
 10
-164.6266479492187
 20
84.24702453613281
 30
0.0
  0
POINT
  5
4C0
330
A
100
AcDbEntity
  8
0
  6
Continuous
 62
     0
 60
     1
370
    20
100
AcDbPoint
 10
-94.62664031982422
 20
134.2470245361328
 30
0.0
  0
LINE
  5
51A
330
A
100
AcDbEntity
  8
0
  6
PHANTOM
 62
     0
370
    20
100
AcDbLine
 10
193.000015258789
 20
15.0
 30
0.0
 11
193.000015258789
 21
-15.0
 31
0.0
  0
MTEXT
  5
5C5
330
A
100
AcDbEntity
  8
0
  6
Continuous
 62
     0
370
    20
100
AcDbMText
 10
35.70230832724019
 20
108.0334322105628
 30
0.0
 40
4.800000190734863
 41
0.0
 71
     1
 72
     1
  1
\A1;BT50-SA412-R2
 73
     1
 44
0.9000000214576726
1001
ACAD
1000
MTEXTBEGIN
1070
    73
1070
     1
1070
    44
1040
0.9000000214576726
1070
    74
1070
     0
1000
MTEXTEND
  0
ELLIPSE
  5
1018
330
A
100
AcDbEntity
  8
0
  6
Continuous
 62
     0
370
    20
100
AcDbEllipse
 10
44.00005020855632
 20
10.35267343873383
 30
0.0
 11
3.984843581649823
 21
-0.0000000000000036
 31
0.0
210
0.0
220
0.0
230
1.0
 40
0.9565769289028708
 41
0.0
 42
6.283185307179584
  0
ELLIPSE
  5
1019
330
A
100
AcDbEntity
  8
0
  6
Continuous
 62
     0
370
    20
100
AcDbEllipse
 10
44.00005020855632
 20
10.35267343873383
 30
0.0
 11
3.374605109086011
 21
0.0000000000000036
 31
0.0
210
0.0
220
0.0
230
1.0
 40
0.9550991460969168
 41
0.0
 42
6.283185307179584
  0
ELLIPSE
  5
101A
330
A
100
AcDbEntity
  8
0
  6
Continuous
 62
     0
370
    20
100
AcDbEllipse
 10
44.0000502085564
 20
25.71141602209457
 30
0.0
 11
3.984843581649768
 21
0.0
 31
0.0
210
0.0
220
0.0
230
1.0
 40
0.7366154227903069
 41
0.0
 42
6.283185307179584
  0
ELLIPSE
  5
101B
330
A
100
AcDbEntity
  8
0
  6
Continuous
 62
     0
370
    20
100
AcDbEllipse
 10
44.00005020855632
 20
25.71141602209457
 30
0.0
 11
-3.374605109086011
 21
0.0000000000000769
 31
0.0
210
0.0
220
0.0
230
1.0
 40
0.7389648671375709
 41
0.0
 42
6.283185307179584
  0
ELLIPSE
  5
101C
330
A
100
AcDbEntity
  8
0
  6
Continuous
 62
     0
370
    20
100
AcDbEllipse
 10
44.00005020855632
 20
36.25222311609892
 30
0.0
 11
3.984843581649823
 21
0.0
 31
0.0
210
0.0
220
0.0
230
1.0
 40
0.3786236585494392
 41
0.0
 42
6.283185307179584
  0
ELLIPSE
  5
101D
330
A
100
AcDbEntity
  8
0
  6
Continuous
 62
     0
370
    20
100
AcDbEllipse
 10
44.00005020855632
 20
36.25222311609892
 30
0.0
 11
3.374605109086011
 21
0.0
 31
0.0
210
0.0
220
0.0
230
1.0
 40
0.3843600807696709
 41
0.0
 42
6.283185307179584
  0
LINE
  5
12DC
330
A
100
AcDbEntity
  8
0
  6
Continuous
 62
     0
370
    20
100
AcDbLine
 10
41.34425020855632
 20
10.35267343873383
 30
0.0
 11
42.67215020855629
 21
12.57430339299039
 31
0.0
  0
LINE
  5
12DD
330
A
100
AcDbEntity
  8
0
  6
Continuous
 62
     0
370
    20
100
AcDbLine
 10
45.32795020855627
 20
12.57430339299039
 30
0.0
 11
46.65585020855631
 21
10.35267343873383
 31
0.0
  0
LINE
  5
12DE
330
A
100
AcDbEntity
  8
0
  6
Continuous
 62
     0
370
    20
100
AcDbLine
 10
41.34425020855632
 20
10.35267343873383
 30
0.0
 11
42.67215020855629
 21
8.131043484477267
 31
0.0
  0
LINE
  5
12DF
330
A
100
AcDbEntity
  8
0
  6
Continuous
 62
     0
370
    20
100
AcDbLine
 10
45.3279502085563
 20
8.131043484477267
 30
0.0
 11
46.65585020855631
 21
10.35267343873383
 31
0.0
  0
LINE
  5
12E0
330
A
100
AcDbEntity
  8
0
  6
Continuous
 62
     0
370
    20
100
AcDbLine
 10
42.67215020855629
 20
8.131043484477267
 30
0.0
 11
45.3279502085563
 21
8.131043484477267
 31
0.0
  0
LINE
  5
12E1
330
A
100
AcDbEntity
  8
0
  6
Continuous
 62
     0
370
    20
100
AcDbLine
 10
42.67215020855632
 20
12.57430339299041
 30
0.0
 11
45.32795020855627
 21
12.57430339299039
 31
0.0
  0
LINE
  5
12EC
330
A
100
AcDbEntity
  8
0
  6
Continuous
 62
     0
370
    20
100
AcDbLine
 10
41.34425020855632
 20
25.71141602209457
 30
0.0
 11
42.67215020855632
 21
27.43077880184406
 31
0.0
  0
LINE
  5
12ED
330
A
100
AcDbEntity
  8
0
  6
Continuous
 62
     0
370
    20
100
AcDbLine
 10
45.32795020855632
 20
27.43077880184406
 30
0.0
 11
46.65585020855631
 21
25.71141602209457
 31
0.0
  0
LINE
  5
12EE
330
A
100
AcDbEntity
  8
0
  6
Continuous
 62
     0
370
    20
100
AcDbLine
 10
46.65585020855631
 20
25.71141602209457
 30
0.0
 11
45.3279502085563
 21
23.94951363652383
 31
0.0
  0
LINE
  5
12EF
330
A
100
AcDbEntity
  8
0
  6
Continuous
 62
     0
370
    20
100
AcDbLine
 10
41.34425020855632
 20
25.71141602209457
 30
0.0
 11
42.67215020855629
 21
23.94951363652383
 31
0.0
  0
LINE
  5
12F0
330
A
100
AcDbEntity
  8
0
  6
Continuous
 62
     0
370
    20
100
AcDbLine
 10
42.67215020855632
 20
27.43077880184406
 30
0.0
 11
45.32795020855632
 21
27.43077880184406
 31
0.0
  0
LINE
  5
12F1
330
A
100
AcDbEntity
  8
0
  6
Continuous
 62
     0
370
    20
100
AcDbLine
 10
42.67215020855632
 20
23.94951363652381
 30
0.0
 11
45.32795020855632
 21
23.94951363652384
 31
0.0
  0
LINE
  5
12F3
330
A
100
AcDbEntity
  8
0
  6
Continuous
 62
     0
370
    20
100
AcDbLine
 10
41.34425020855632
 20
36.25222311609892
 30
0.0
 11
42.67215020855632
 21
37.22424279335781
 31
0.0
  0
LINE
  5
12F4
330
A
100
AcDbEntity
  8
0
  6
Continuous
 62
     0
370
    20
100
AcDbLine
 10
42.67215020855632
 20
37.22424279335781
 30
0.0
 11
45.32795020855632
 21
37.22424279335781
 31
0.0
  0
LINE
  5
12F5
330
A
100
AcDbEntity
  8
0
  6
Continuous
 62
     0
370
    20
100
AcDbLine
 10
45.32795020855632
 20
37.22424279335781
 30
0.0
 11
46.65585020855631
 21
36.25222311609892
 31
0.0
  0
LINE
  5
12F6
330
A
100
AcDbEntity
  8
0
  6
Continuous
 62
     0
370
    20
100
AcDbLine
 10
46.65585020855631
 20
36.25222311609892
 30
0.0
 11
45.32795020855632
 21
35.28020343884004
 31
0.0
  0
LINE
  5
12F7
330
A
100
AcDbEntity
  8
0
  6
Continuous
 62
     0
370
    20
100
AcDbLine
 10
45.32795020855632
 20
35.28020343884004
 30
0.0
 11
42.67215020855632
 21
35.28020343884004
 31
0.0
  0
LINE
  5
12F8
330
A
100
AcDbEntity
  8
0
  6
Continuous
 62
     0
370
    20
100
AcDbLine
 10
42.67215020855632
 20
35.28020343884004
 30
0.0
 11
41.34425020855632
 21
36.25222311609892
 31
0.0
  0
LINE
  5
12F9
330
A
100
AcDbEntity
  8
0
  6
Continuous
 62
     0
370
    20
100
AcDbLine
 10
52.00003051757811
 20
17.0
 30
0.0
 11
54.0000305175781
 21
19.0
 31
0.0
  0
LINE
  5
1477
330
A
100
AcDbEntity
  8
0
  6
Continuous
 62
     7
370
    20
100
AcDbLine
 10
92.00003051757812
 20
88.74998474121094
 30
0.0
 11
97.00003051757812
 21
88.74998474121095
 31
0.0
  0
LINE
  5
1478
330
A
100
AcDbEntity
  8
0
  6
Continuous
 62
     7
370
    20
100
AcDbLine
 10
97.00003051757812
 20
88.24998474121095
 30
0.0
 11
104.0000305175781
 21
88.24998474121093
 31
0.0
  0
LINE
  5
1479
330
A
100
AcDbEntity
  8
0
  6
Continuous
 62
     7
370
    20
100
AcDbLine
 10
92.00003051757812
 20
71.24998474121094
 30
0.0
 11
97.00003051757812
 21
71.24998474121094
 31
0.0
  0
LINE
  5
147A
330
A
100
AcDbEntity
  8
0
  6
Continuous
 62
     7
370
    20
100
AcDbLine
 10
97.00003051757812
 20
71.74998474121093
 30
0.0
 11
104.0000305175781
 21
71.74998474121093
 31
0.0
  0
LINE
  5
147B
330
A
100
AcDbEntity
  8
0
  6
Continuous
 62
     7
370
    20
100
AcDbLine
 10
44.0
 20
89.99998474121094
 30
0.0
 11
44.0
 21
79.99998474121094
 31
0.0
  0
LINE
  5
147C
330
A
100
AcDbEntity
  8
0
  6
Continuous
 62
     7
370
    20
100
AcDbLine
 10
42.99994372093351
 20
89.00002578563363
 30
0.0
 11
43.99996653042672
 21
90.00002676280017
 31
0.0
  0
LINE
  5
147D
330
A
100
AcDbEntity
  8
0
  6
Continuous
 62
     7
370
    20
100
AcDbLine
 10
43.25
 20
89.25
 30
0.0
 11
52.00003051757812
 21
89.25
 31
0.0
  0
LINE
  5
147E
330
A
100
AcDbEntity
  8
0
  6
Continuous
 62
     7
370
    20
100
AcDbLine
 10
60.00003051757812
 20
89.25
 30
0.0
 11
60.4000152587891
 21
89.25
 31
0.0
  0
LINE
  5
147F
330
A
100
AcDbEntity
  8
0
  6
Continuous
 62
     7
370
    20
100
AcDbLine
 10
44.0
 20
89.99998474121094
 30
0.0
 11
52.00003051757812
 21
89.99998474121094
 31
0.0
  0
LINE
  5
1480
330
A
100
AcDbEntity
  8
0
  6
Continuous
 62
     7
370
    20
100
AcDbLine
 10
7.732094539645955
 20
89.0
 30
0.0
 11
17.00003051757812
 21
89.0
 31
0.0
  0
LINE
  5
1481
330
A
100
AcDbEntity
  8
0
  6
Continuous
 62
     7
370
    20
100
AcDbLine
 10
61.00003051757815
 20
88.64998474121094
 30
0.0
 11
62.00003051757812
 21
88.64998474121094
 31
0.0
  0
LINE
  5
1482
330
A
100
AcDbEntity
  8
0
  6
Continuous
 62
     7
370
    20
100
AcDbLine
 10
43.00003051757812
 20
88.99996948242186
 30
0.0
 11
43.00003051757812
 21
79.99998474121094
 31
0.0
  0
LINE
  5
1483
330
A
100
AcDbEntity
  8
0
  6
Continuous
 62
     7
370
    20
100
AcDbLine
 10
44.0
 20
69.99998474121095
 30
0.0
 11
44.0
 21
79.99998474121094
 31
0.0
  0
LINE
  5
1484
330
A
100
AcDbEntity
  8
0
  6
Continuous
 62
     7
370
    20
100
AcDbLine
 10
42.99996809483855
 20
70.99985780685165
 30
0.0
 11
43.99994757724198
 21
69.99987832444822
 31
0.0
  0
LINE
  5
1485
330
A
100
AcDbEntity
  8
0
  6
Continuous
 62
     7
370
    20
100
AcDbLine
 10
43.25
 20
70.74998474121094
 30
0.0
 11
52.00003051757812
 21
70.74998474121094
 31
0.0
  0
LINE
  5
1486
330
A
100
AcDbEntity
  8
0
  6
Continuous
 62
     7
370
    20
100
AcDbLine
 10
60.00003051757812
 20
70.74998474121095
 30
0.0
 11
60.4000305175781
 21
70.74998474121095
 31
0.0
  0
LINE
  5
1487
330
A
100
AcDbEntity
  8
0
  6
Continuous
 62
     7
370
    20
100
AcDbLine
 10
44.0
 20
69.99998474121095
 30
0.0
 11
52.00003051757812
 21
69.99998474121096
 31
0.0
  0
LINE
  5
1488
330
A
100
AcDbEntity
  8
0
  6
Continuous
 62
     7
370
    20
100
AcDbLine
 10
61.00003051757813
 20
71.34998474121094
 30
0.0
 11
60.00003051757812
 21
70.34998474121097
 31
0.0
  0
LINE
  5
1489
330
A
100
AcDbEntity
  8
0
  6
Continuous
 62
     7
370
    20
100
AcDbLine
 10
7.732094539645997
 20
70.99998474121092
 30
0.0
 11
17.00003051757812
 21
70.99998474121093
 31
0.0
  0
LINE
  5
148A
330
A
100
AcDbEntity
  8
0
  6
Continuous
 62
     7
370
    20
100
AcDbLine
 10
61.00003051757809
 20
71.34998474121093
 30
0.0
 11
62.00003051757812
 21
71.34998474121093
 31
0.0
  0
LINE
  5
148B
330
A
100
AcDbEntity
  8
0
  6
Continuous
 62
     7
370
    20
100
AcDbLine
 10
43.00003051757812
 20
70.99998474121093
 30
0.0
 11
43.00003051757812
 21
79.99998474121094
 31
0.0
  0
LINE
  5
148C
330
A
100
AcDbEntity
  8
0
  6
Continuous
 62
     7
370
    20
100
AcDbLine
 10
16.99997873185697
 20
88.8999295196597
 30
0.0
 11
43.00003051757812
 21
88.8999295196597
 31
0.0
  0
LINE
  5
148D
330
A
100
AcDbEntity
  8
0
  6
Continuous
 62
     7
370
    20
100
AcDbLine
 10
16.99997873185697
 20
71.0999417266909
 30
0.0
 11
43.00003051757812
 21
71.0999417266909
 31
0.0
  0
LINE
  5
148E
330
A
100
AcDbEntity
  8
0
  6
DASHED
 62
     0
370
    20
100
AcDbLine
 10
45.36492919921871
 20
82.99996948242187
 30
0.0
 11
45.36492919921871
 21
77.0
 31
0.0
  0
LINE
  5
148F
330
A
100
AcDbEntity
  8
0
  6
DASHED
 62
     0
370
    20
100
AcDbLine
 10
45.3649622336452
 20
76.9999866512735
 30
0.0
 11
46.00004829321551
 21
75.89998534866208
 31
0.0
  0
LINE
  5
1490
330
A
100
AcDbEntity
  8
0
  6
DASHED
 62
     0
370
    20
100
AcDbLine
 10
45.36495848185404
 20
82.9999639884353
 30
0.0
 11
46.00044763629114
 21
84.1006634718237
 31
0.0
  0
LINE
  5
1491
330
A
100
AcDbEntity
  8
0
  6
DASHED
 62
     0
370
    20
100
AcDbLine
 10
46.00003051757812
 20
75.89999389648437
 30
0.0
 11
46.00003051757812
 21
84.09997558593749
 31
0.0
  0
LINE
  5
1492
330
A
100
AcDbEntity
  8
0
  6
DASHED
 62
     0
370
    20
100
AcDbLine
 10
103.5340246820369
 20
75.61756817450701
 30
0.0
 11
105.0000379414696
 21
74.77115749484697
 31
0.0
  0
LINE
  5
1493
330
A
100
AcDbEntity
  8
0
  6
DASHED
 62
     0
370
    20
100
AcDbLine
 10
93.11316628228974
 20
75.90051190756866
 30
0.0
 11
94.49942186899875
 21
75.10016100447547
 31
0.0
  0
LINE
  5
1494
330
A
100
AcDbEntity
  8
0
  6
DASHED
 62
     0
370
    20
100
AcDbLine
 10
94.49957189458018
 20
75.10062190576764
 30
0.0
 11
104.9995155419101
 21
74.77065045479001
 31
0.0
  0
LINE
  5
1495
330
A
100
AcDbEntity
  8
0
  6
DASHED
 62
     0
370
    20
100
AcDbLine
 10
94.49952730102451
 20
75.90028066926376
 30
0.0
 11
103.5335192729144
 21
75.61637580538945
 31
0.0
  0
LINE
  5
1496
330
A
100
AcDbEntity
  8
0
  6
DASHED
 62
     0
370
    20
100
AcDbLine
 10
46.00003051757812
 20
75.90068178237057
 30
0.0
 11
94.49966430664062
 21
75.9006817823706
 31
0.0
  0
LINE
  5
1497
330
A
100
AcDbEntity
  8
0
  6
DASHED
 62
     0
370
    20
100
AcDbLine
 10
94.49966430664062
 20
75.10026674330809
 30
0.0
 11
94.49966430664062
 21
80.00067262709716
 31
0.0
  0
LINE
  5
1498
330
A
100
AcDbEntity
  8
0
  6
DASHED
 62
     0
370
    20
100
AcDbLine
 10
7.866055921362614
 20
77.0
 30
0.0
 11
45.36492919921871
 21
77.0
 31
0.0
  0
LINE
  5
1499
330
A
100
AcDbEntity
  8
0
  6
DASHED
 62
     0
370
    20
100
AcDbLine
 10
103.5340157262308
 20
84.38371669695014
 30
0.0
 11
105.0000308018516
 21
85.23012424873058
 31
0.0
  0
LINE
  5
149A
330
A
100
AcDbEntity
  8
0
  6
DASHED
 62
     0
370
    20
100
AcDbLine
 10
7.866055921362576
 20
82.99996948242187
 30
0.0
 11
45.36492919921871
 21
82.99996948242187
 31
0.0
  0
LINE
  5
149B
330
A
100
AcDbEntity
  8
0
  6
DASHED
 62
     0
370
    20
100
AcDbLine
 10
93.11309794922365
 20
84.10093488113714
 30
0.0
 11
94.49935334511337
 21
84.90128616586888
 31
0.0
  0
LINE
  5
149C
330
A
100
AcDbEntity
  8
0
  6
DASHED
 62
     0
370
    20
100
AcDbLine
 10
94.49964615952012
 20
84.90083112719771
 30
0.0
 11
104.9995891806957
 21
85.23081197049078
 31
0.0
  0
LINE
  5
149D
330
A
100
AcDbEntity
  8
0
  6
DASHED
 62
     0
370
    20
100
AcDbLine
 10
94.49949313139745
 20
84.10095467234713
 30
0.0
 11
103.5334856420211
 21
84.38485616913565
 31
0.0
  0
LINE
  5
149E
330
A
100
AcDbEntity
  8
0
  6
DASHED
 62
     0
370
    20
100
AcDbLine
 10
46.00044763629114
 20
84.1006634718237
 30
0.0
 11
94.49966430664062
 21
84.10066347182372
 31
0.0
  0
LINE
  5
149F
330
A
100
AcDbEntity
  8
0
  6
DASHED
 62
     0
370
    20
100
AcDbLine
 10
103.5340157262308
 20
84.38371669695014
 30
0.0
 11
103.5340157262308
 21
75.61756817450701
 31
0.0
  0
LINE
  5
14A0
330
A
100
AcDbEntity
  8
0
  6
Continuous
 62
     7
370
    20
100
AcDbLine
 10
6.000030517578125
 20
71.99999237060545
 30
0.0
 11
6.000030517578125
 21
87.99999237060546
 31
0.0
  0
LINE
  5
14A1
330
A
100
AcDbEntity
  8
0
  6
Continuous
 62
     7
370
    20
100
AcDbLine
 10
105.0000305175781
 20
72.74998474121094
 30
0.0
 11
105.0000305175781
 21
87.24998474121093
 31
0.0
  0
LINE
  5
14A2
330
A
100
AcDbEntity
  8
0
  6
Continuous
 62
     7
370
    20
100
AcDbLine
 10
61.00003051757813
 20
71.34998474121094
 30
0.0
 11
61.00003051757813
 21
88.64998474121092
 31
0.0
  0
LINE
  5
14A3
330
A
100
AcDbEntity
  8
0
  6
DASHED
 62
     0
370
    20
100
AcDbLine
 10
94.50003051757809
 20
75.10060749307161
 30
0.0
 11
94.50003051757812
 21
84.9008432063867
 31
0.0
  0
LINE
  5
14A4
330
A
100
AcDbEntity
  8
0
  6
Continuous
 62
     7
370
    20
100
AcDbLine
 10
98.00003051757812
 20
74.9193843829856
 30
0.0
 11
98.00003051757812
 21
85.0805850994363
 31
0.0
  0
LINE
  5
14A5
330
A
100
AcDbEntity
  8
0
  6
Continuous
 62
     7
370
    20
100
AcDbLine
 10
97.00003051757811
 20
71.24998474121094
 30
0.0
 11
97.00003051757812
 21
88.74998474121095
 31
0.0
  0
LINE
  5
14A6
330
A
100
AcDbEntity
  8
0
  6
Continuous
 62
     7
370
    20
100
AcDbLine
 10
104.0000305175781
 20
88.24998474121093
 30
0.0
 11
105.0000305175781
 21
87.24998474121093
 31
0.0
  0
LINE
  5
14A7
330
A
100
AcDbEntity
  8
0
  6
Continuous
 62
     7
370
    20
100
AcDbLine
 10
104.0000305175781
 20
71.74998474121093
 30
0.0
 11
105.0000305175781
 21
72.74998474121094
 31
0.0
  0
LINE
  5
14A8
330
A
100
AcDbEntity
  8
0
  6
Continuous
 62
     7
370
    20
100
AcDbLine
 10
17.00003051757812
 20
70.99998474121095
 30
0.0
 11
17.00003051757812
 21
89.0
 31
0.0
  0
LINE
  5
14AA
330
A
100
AcDbEntity
  8
0
  6
Continuous
 62
     7
370
    20
100
AcDbLine
 10
7.732094539646007
 20
70.99998474121092
 30
0.0
 11
6.000030517578125
 21
71.99999237060545
 31
0.0
  0
LINE
  5
14AB
330
A
100
AcDbEntity
  8
0
  6
Continuous
 62
     7
370
    20
100
AcDbLine
 10
7.732094539645994
 20
89.00000000000002
 30
0.0
 11
6.000030517578125
 21
87.99999237060545
 31
0.0
  0
LINE
  5
14AC
330
A
100
AcDbEntity
  8
0
  6
Continuous
 62
     7
370
    20
100
AcDbLine
 10
105.0000305175781
 20
85.0805850994363
 30
0.0
 11
98.00003051757812
 21
85.0805850994363
 31
0.0
  0
LINE
  5
14AD
330
A
100
AcDbEntity
  8
0
  6
Continuous
 62
     7
370
    20
100
AcDbLine
 10
105.0000305175781
 20
74.9193843829856
 30
0.0
 11
98.00003051757812
 21
74.9193843829856
 31
0.0
  0
LINE
  5
14AE
330
A
100
AcDbEntity
  8
0
  6
Continuous
 62
     7
370
    20
100
AcDbLine
 10
98.00003051757812
 20
85.0805850994363
 30
0.0
 11
105.0000305175781
 21
74.9193843829856
 31
0.0
  0
LINE
  5
14AF
330
A
100
AcDbEntity
  8
0
  6
Continuous
 62
     7
370
    20
100
AcDbLine
 10
98.00003051757812
 20
74.9193843829856
 30
0.0
 11
105.0000305175781
 21
85.0805850994363
 31
0.0
  0
LINE
  5
14B0
330
A
100
AcDbEntity
  8
0
  6
Continuous
 62
     7
370
    20
100
AcDbLine
 10
61.00003051757813
 20
88.64998474121092
 30
0.0
 11
60.00003051757812
 21
89.64998474121093
 31
0.0
  0
LINE
  5
14BA
330
A
100
AcDbEntity
  8
0
  6
Continuous
 62
     0
370
     0
100
AcDbLine
 10
7.732094539645994
 20
89.00000000000002
 30
0.0
 11
7.732094539645997
 21
70.99998474121092
 31
0.0
  0
LINE
  5
14BD
330
A
100
AcDbEntity
  8
0
  6
DASHED
 62
     0
370
    20
100
AcDbLine
 10
6.000030517578125
 20
76.5
 30
0.0
 11
7.866055921362606
 21
76.99999999999999
 31
0.0
  0
LINE
  5
14BE
330
A
100
AcDbEntity
  8
0
  6
DASHED
 62
     0
370
    20
100
AcDbLine
 10
6.000030517578125
 20
83.49996948242186
 30
0.0
 11
7.866055921362606
 21
82.99996948242187
 31
0.0
  0
LINE
  5
14BF
330
A
100
AcDbEntity
  8
0
  6
DASHED
 62
     0
370
    20
100
AcDbLine
 10
7.866055921362659
 20
77.0
 30
0.0
 11
7.866055921362659
 21
82.99996948242185
 31
0.0
  0
ENDSEC
  0
SECTION
  2
OBJECTS
  0
DICTIONARY
  5
19
330
0
100
AcDbDictionary
281
     1
  3
ACAD_CIP_PREVIOUS_PRODUCT_INFO
350
512
  3
ACAD_COLOR
350
4F4
  3
ACAD_DETAILVIEWSTYLE
350
50D
  3
ACAD_GROUP
350
1A
  3
ACAD_LAYOUT
350
1E
  3
ACAD_MATERIAL
350
4C2
  3
ACAD_MLEADERSTYLE
350
509
  3
ACAD_MLINESTYLE
350
1B
  3
ACAD_PLOTSETTINGS
350
22
  3
ACAD_PLOTSTYLENAME
350
1F
  3
ACAD_SCALELIST
350
4F7
  3
ACAD_SECTIONVIEWSTYLE
350
50B
  3
ACAD_TABLESTYLE
350
4F5
  3
ACAD_VISUALSTYLE
350
4DB
  3
ACDB_RECOMPOSE_DATA
350
14C2
  3
AcDbVariableDictionary
350
5DA
  3
DWGPROPS
350
14C3
  0
DICTIONARY
  5
5BC
330
2
100
AcDbDictionary
280
     1
281
     1
  3
ACAD_LAYERSTATES
360
5BD
  0
DICTIONARY
  5
5C7
330
14
100
AcDbDictionary
280
     1
281
     1
  3
ADSK_XREC_LAYER_RECONCILED
360
5C8
  0
DICTIONARY
  5
12B9
330
A
100
AcDbDictionary
280
     1
281
     1
  3
ACAD_SORTENTS
360
12BA
  0
XRECORD
  5
512
102
{ACAD_REACTORS
330
19
102
}
330
19
100
AcDbXrecord
280
     1
300
ACDLT
300
2016
300
ACDLT_F_S
  0
DICTIONARY
  5
4F4
102
{ACAD_REACTORS
330
19
102
}
330
19
100
AcDbDictionary
281
     1
  0
DICTIONARY
  5
50D
102
{ACAD_REACTORS
330
19
102
}
330
19
100
AcDbDictionary
281
     1
  3
Metric50
350
50E
  0
DICTIONARY
  5
1A
102
{ACAD_REACTORS
330
19
102
}
330
19
100
AcDbDictionary
281
     1
  0
DICTIONARY
  5
1E
102
{ACAD_REACTORS
330
19
102
}
330
19
100
AcDbDictionary
281
     1
  3
Layout1
350
21
  3
Model
350
20
  0
DICTIONARY
  5
4C2
102
{ACAD_REACTORS
330
19
102
}
330
19
100
AcDbDictionary
281
     1
  3
ByBlock
350
4CB
  3
ByLayer
350
4C3
  3
Global
350
4D3
  0
DICTIONARY
  5
509
102
{ACAD_REACTORS
330
19
102
}
330
19
100
AcDbDictionary
281
     1
  3
Standard
350
50A
  0
DICTIONARY
  5
1B
102
{ACAD_REACTORS
330
19
102
}
330
19
100
AcDbDictionary
281
     1
  3
Standard
350
1C
  0
DICTIONARY
  5
22
102
{ACAD_REACTORS
330
19
102
}
330
19
100
AcDbDictionary
281
     1
  0
ACDBDICTIONARYWDFLT
  5
1F
102
{ACAD_REACTORS
330
19
102
}
330
19
100
AcDbDictionary
281
     1
  3
Normal
350
1D
100
AcDbDictionaryWithDefault
340
1D
  0
DICTIONARY
  5
4F7
102
{ACAD_REACTORS
330
19
102
}
330
19
100
AcDbDictionary
281
     1
  3
A0
350
4F8
  3
A1
350
4F9
  3
A2
350
4FA
  3
A3
350
4FB
  3
A4
350
4FC
  3
A5
350
4FD
  3
A6
350
4FE
  3
A7
350
4FF
  3
A8
350
500
  3
A9
350
501
  3
B0
350
502
  3
B1
350
503
  3
B2
350
504
  3
B3
350
505
  3
B4
350
506
  3
B5
350
507
  3
B6
350
508
  0
DICTIONARY
  5
50B
102
{ACAD_REACTORS
330
19
102
}
330
19
100
AcDbDictionary
281
     1
  3
Metric50
350
50C
  0
DICTIONARY
  5
4F5
102
{ACAD_REACTORS
330
19
102
}
330
19
100
AcDbDictionary
281
     1
  3
Standard
350
4F6
  0
DICTIONARY
  5
4DB
102
{ACAD_REACTORS
330
19
102
}
330
19
100
AcDbDictionary
281
     1
  3
2dWireframe
350
4E1
  3
Basic
350
4E0
  3
Brighten
350
4E7
  3
ColorChange
350
4EB
  3
Conceptual
350
4E4
  3
Dim
350
4E6
  3
EdgeColorOff
350
4F3
  3
Facepattern
350
4EA
  3
Flat
350
4DC
  3
FlatWithEdges
350
4DD
  3
Gouraud
350
4DE
  3
GouraudWithEdges
350
4DF
  3
Hidden
350
4E3
  3
JitterOff
350
4F1
  3
Linepattern
350
4E9
  3
OverhangOff
350
4F2
  3
Realistic
350
4E5
  3
Shaded
350
4F0
  3
Shaded with edges
350
4EF
  3
Shades of Gray
350
4EC
  3
Sketchy
350
4ED
  3
Thicken
350
4E8
  3
Wireframe
350
4E2
  3
X-Ray
350
4EE
  0
XRECORD
  5
14C2
102
{ACAD_REACTORS
330
19
102
}
330
19
100
AcDbXrecord
280
     1
 90
        1
330
4F6
  0
DICTIONARY
  5
5DA
102
{ACAD_REACTORS
330
19
102
}
330
19
100
AcDbDictionary
281
     1
  3
CANNOSCALE
350
5DF
  3
CMLEADERSTYLE
350
5DC
  3
CTABLESTYLE
350
5DB
  3
CVIEWDETAILSTYLE
350
5DD
  3
CVIEWSECTIONSTYLE
350
5DE
  3
DIMASSOC
350
5E2
  3
INDEXCTL
350
5E1
  3
SORTENTS
350
5E0
  3
XCLIPFRAME
350
14C0
  0
XRECORD
  5
14C3
102
{ACAD_REACTORS
330
19
102
}
330
19
100
AcDbXrecord
280
     1
  1
DWGPROPS COOKIE
  2

  3

  4

  6

  7

  8
dinhdinh
  9

300
=
301
=
302
=
303
=
304
=
305
=
306
=
307
=
308
=
309
=
 40
0.1672245370370371
 41
2456070.818703704
 42
2457206.589129942
  1

 90
        0
  0
DICTIONARY
  5
5BD
102
{ACAD_REACTORS
330
5BC
102
}
330
5BC
100
AcDbDictionary
281
     1
  0
XRECORD
  5
5C8
102
{ACAD_REACTORS
330
5C7
102
}
330
5C7
100
AcDbXrecord
280
     1
290
     1
  0
SORTENTSTABLE
  5
12BA
102
{ACAD_REACTORS
330
12B9
102
}
330
12B9
100
AcDbSortentsTable
330
A
331
364
  5
364
331
311
  5
311
331
360
  5
360
331
35C
  5
35C
331
30D
  5
30D
331
39F
  5
39F
331
470
  5
471
331
309
  5
309
331
39B
  5
39B
331
3DA
  5
3DA
331
46C
  5
46D
331
397
  5
397
331
3D6
  5
3D6
331
42D
  5
42D
331
429
  5
429
331
468
  5
468
331
4AF
  5
4B0
331
3D2
  5
3D2
331
149F
  5
14A1
331
149B
  5
149D
331
4A7
  5
4A8
331
12F9
  5
46A
331
1497
  5
1497
331
4A3
  5
4A4
331
1493
  5
1493
331
2F9
  5
2F9
331
3CE
  5
3CE
331
425
  5
425
331
464
  5
464
331
2E9
  5
2E9
331
38B
  5
38B
331
3CA
  5
3CA
331
421
  5
421
331
460
  5
460
331
45C
  5
45C
331
387
  5
387
331
3C6
  5
3C6
331
458
  5
458
331
383
  5
383
331
12F5
  5
12F6
331
3C2
  5
3C2
331
12F1
  5
12F3
331
12ED
  5
12EE
331
101A
  5
101B
331
37F
  5
37F
331
37B
  5
37B
331
3BE
  5
3BE
331
454
  5
454
331
2E5
  5
2E5
331
3BA
  5
3BA
331
450
  5
450
331
44C
  5
44C
331
3B6
  5
3B6
331
448
  5
448
331
3B2
  5
3B2
331
51A
  5
5C5
331
14BA
  5
14BC
331
148F
  5
148F
331
148B
  5
148B
331
12E1
  5
12EC
331
377
  5
377
331
373
  5
373
331
36F
  5
36F
331
487
  5
488
331
36B
  5
36B
331
3AE
  5
3AE
331
444
  5
444
331
31C
  5
31C
331
318
  5
318
331
3AA
  5
3AA
331
440
  5
440
331
43C
  5
43C
331
47B
  5
47D
331
3A6
  5
3A6
331
3F9
  5
3F9
331
438
  5
438
331
1487
  5
1487
331
4BE
  5
4BF
331
12DD
  5
12E2
331
3A2
  5
3A2
331
14AE
  5
14B0
331
1483
  5
1483
331
4BA
  5
4BB
331
14AA
  5
14AC
331
147F
  5
147F
331
14A6
  5
14A8
331
147B
  5
147B
331
14A2
  5
14A4
331
367
  5
367
331
363
  5
363
331
477
  5
47B
331
310
  5
310
331
35F
  5
35F
331
35B
  5
35B
331
30C
  5
30C
331
39E
  5
39E
331
46F
  5
470
331
308
  5
308
331
39A
  5
39A
331
3D9
  5
3D9
331
42C
  5
42C
331
46B
  5
46C
331
396
  5
396
331
3D5
  5
3D5
331
428
  5
428
331
1477
  5
1477
331
3D1
  5
3D1
331
149E
  5
14A0
331
149A
  5
149B
331
4A6
  5
4A7
331
12F8
  5
12F9
331
1496
  5
1496
331
4A2
  5
4A3
331
1492
  5
1492
331
467
  5
467
331
2F8
  5
2F8
331
3CD
  5
3CD
331
424
  5
424
331
463
  5
463
331
45F
  5
45F
331
2E8
  5
2E8
331
38A
  5
38A
331
3C9
  5
3C9
331
420
  5
420
331
45B
  5
45B
331
386
  5
386
331
3C5
  5
3C5
331
382
  5
382
331
12F4
  5
12F5
331
3C1
  5
3C1
331
12F0
  5
12F1
331
12EC
  5
12ED
331
496
  5
49C
331
101D
  5
1285
331
1019
  5
101A
331
37E
  5
37E
331
457
  5
457
331
37A
  5
37A
331
3BD
  5
3BD
331
2E4
  5
2E4
331
3B9
  5
3B9
331
44F
  5
44F
331
44B
  5
44B
331
3B5
  5
3B5
331
414
  5
414
331
3B1
  5
3B1
331
148E
  5
148E
331
148A
  5
148A
331
12E0
  5
12E5
331
327
  5
327
331
376
  5
376
331
372
  5
372
331
36E
  5
36E
331
447
  5
447
331
486
  5
487
331
31B
  5
31B
331
36A
  5
36A
331
3AD
  5
3AD
331
443
  5
443
331
482
  5
484
331
47E
  5
481
331
3A9
  5
3A9
331
43F
  5
43F
331
43B
  5
43B
331
3A5
  5
3A5
331
3F8
  5
3F8
331
1486
  5
1486
331
4BD
  5
4BE
331
12DC
  5
12E1
331
3A1
  5
3A1
331
14AD
  5
14AF
331
1482
  5
1482
331
4B9
  5
4BA
331
147E
  5
147E
331
14A5
  5
14A7
331
147A
  5
147A
331
14A1
  5
14A3
331
366
  5
366
331
362
  5
362
331
35E
  5
35E
331
437
  5
437
331
476
  5
477
331
30F
  5
30F
331
35A
  5
35A
331
5C5
  5
1018
331
39D
  5
39D
331
472
  5
475
331
30B
  5
30B
331
46E
  5
46F
331
399
  5
399
331
3D8
  5
3D8
331
42F
  5
42F
331
42B
  5
42B
331
46A
  5
46B
331
395
  5
395
331
3D4
  5
3D4
331
3D0
  5
3D0
331
4AD
  5
4AE
331
149D
  5
149F
331
4A9
  5
4AA
331
1499
  5
149A
331
1495
  5
1495
331
1491
  5
1491
331
2FB
  5
2FB
331
427
  5
427
331
466
  5
466
331
3CC
  5
3CC
331
423
  5
423
331
462
  5
462
331
2EB
  5
2EB
331
45E
  5
45E
331
389
  5
389
331
3C8
  5
3C8
331
41F
  5
41F
331
45A
  5
45A
331
385
  5
385
331
12F7
  5
12F8
331
3C4
  5
3C4
331
381
  5
381
331
12F3
  5
12F4
331
3C0
  5
3C0
331
12EF
  5
12F0
331
101C
  5
101D
331
1018
  5
1019
331
37D
  5
37D
331
2E7
  5
2E7
331
379
  5
379
331
3BC
  5
3BC
331
452
  5
452
331
44E
  5
44E
331
3B8
  5
3B8
331
44A
  5
44A
331
489
  5
48B
331
3B4
  5
3B4
331
413
  5
413
331
3B0
  5
3B0
331
148D
  5
148D
331
1489
  5
1489
331
4C0
  5
51A
331
14B0
  5
14BB
331
375
  5
375
331
322
  5
322
331
371
  5
371
331
36D
  5
36D
331
446
  5
446
331
481
  5
482
331
31A
  5
31A
331
369
  5
369
331
3AC
  5
3AC
331
442
  5
442
331
47D
  5
47E
331
3A8
  5
3A8
331
43E
  5
43E
331
43A
  5
43A
331
12DF
  5
12E4
331
3A4
  5
3A4
331
1485
  5
1485
331
4BC
  5
4BD
331
3A0
  5
3A0
331
14AC
  5
14AE
331
1481
  5
1481
331
4B8
  5
4B9
331
14A8
  5
14AB
331
147D
  5
147D
331
14A4
  5
14A6
331
1479
  5
1479
331
14A0
  5
14A2
331
365
  5
365
331
312
  5
312
331
361
  5
361
331
35D
  5
35D
331
307
  5
307
331
475
  5
476
331
30E
  5
30E
331
30A
  5
30A
331
359
  5
359
331
39C
  5
39C
331
3DB
  5
3DB
331
432
  5
432
331
471
  5
472
331
46D
  5
46E
331
398
  5
398
331
3D7
  5
3D7
331
42E
  5
42E
331
42A
  5
42A
331
469
  5
469
331
394
  5
394
331
3D3
  5
3D3
331
149C
  5
149E
331
4A8
  5
4A9
331
1498
  5
1498
331
1494
  5
1494
331
1490
  5
1490
331
2FA
  5
2FA
331
3CF
  5
3CF
331
426
  5
426
331
465
  5
465
331
3CB
  5
3CB
331
422
  5
422
331
461
  5
461
331
2EA
  5
2EA
331
45D
  5
45D
331
388
  5
388
331
3C7
  5
3C7
331
41E
  5
41E
331
459
  5
459
331
384
  5
384
331
12F6
  5
12F7
331
3C3
  5
3C3
331
49C
  5
49D
331
380
  5
380
331
12EE
  5
12EF
331
101B
  5
101C
331
490
  5
492
331
37C
  5
37C
331
3BF
  5
3BF
331
455
  5
455
331
2E6
  5
2E6
331
378
  5
378
331
3BB
  5
3BB
331
451
  5
451
331
44D
  5
44D
331
3B7
  5
3B7
331
412
  5
412
331
449
  5
449
331
488
  5
489
331
3B3
  5
3B3
331
148C
  5
148C
331
1488
  5
1488
331
374
  5
374
331
370
  5
370
331
36C
  5
36C
331
445
  5
445
331
484
  5
486
331
31D
  5
31D
331
3AF
  5
3AF
331
319
  5
319
331
368
  5
368
331
3AB
  5
3AB
331
441
  5
441
331
43D
  5
43D
331
3A7
  5
3A7
331
439
  5
439
331
4BF
  5
4C0
331
12DE
  5
12E3
331
3A3
  5
3A3
331
3FA
  5
3FA
331
14AF
  5
14BA
331
1484
  5
1484
331
4BB
  5
4BC
331
14AB
  5
14AD
331
1480
  5
1480
331
4B7
  5
4B8
331
14A7
  5
14AA
331
147C
  5
147C
331
14A3
  5
14A5
331
1478
  5
1478
  0
ACDBDETAILVIEWSTYLE
  5
50E
102
{ACAD_XDICTIONARY
360
14FD
102
}
102
{ACAD_REACTORS
330
50D
102
}
330
50D
100
AcDbModelDocViewStyle
 70
     0
  3
Metric50
290
     0
100
AcDbDetailViewStyle
 70
     0
 71
     0
 90
        3
 71
     1
340
0
 40
5.0
340
0
 40
5.0
300

 40
0.0
280
     1
 71
     2
340
13
 90
       25
 71
     3
340
0
 40
5.0
 90
        0
 40
15.0
 90
        1
300
%<\AcVar ViewDetailId>% (%<\AcVar ViewScale \f "%sn">%)
 71
     4
340
13
 90
       25
340
13
 90
       25
280
     0
  0
LAYOUT
  5
21
102
{ACAD_XDICTIONARY
360
14C6
102
}
102
{ACAD_REACTORS
330
1E
102
}
330
1E
100
AcDbPlotSettings
  1

  2

  4

  6

 40
0.0
 41
0.0
 42
0.0
 43
0.0
 44
0.0
 45
0.0
 46
0.0
 47
0.0
 48
0.0
 49
0.0
140
0.0
141
0.0
142
1.0
143
1.0
 70
     0
 72
     0
 73
     0
 74
     0
  7

 75
     0
147
1.0
148
0.0
149
0.0
100
AcDbLayout
  1
Layout1
 70
     0
 71
     1
 10
0.0
 20
0.0
 11
12.0
 21
9.0
 12
0.0
 22
0.0
 32
0.0
 14
1.000000000000000E+20
 24
1.000000000000000E+20
 34
1.000000000000000E+20
 15
-1.000000000000000E+20
 25
-1.000000000000000E+20
 35
-1.000000000000000E+20
146
0.0
 13
0.0
 23
0.0
 33
0.0
 16
1.0
 26
0.0
 36
0.0
 17
0.0
 27
1.0
 37
0.0
 76
     0
330
B
  0
LAYOUT
  5
20
102
{ACAD_XDICTIONARY
360
14C4
102
}
102
{ACAD_REACTORS
330
1E
102
}
330
1E
100
AcDbPlotSettings
  1

  2

  4

  6

 40
0.0
 41
0.0
 42
0.0
 43
0.0
 44
0.0
 45
0.0
 46
0.0
 47
0.0
 48
0.0
 49
0.0
140
0.0
141
0.0
142
1.0
143
1.0
 70
  1024
 72
     0
 73
     0
 74
     0
  7

 75
     0
147
1.0
148
0.0
149
0.0
100
AcDbLayout
  1
Model
 70
     0
 71
     0
 10
0.0
 20
0.0
 11
0.0
 21
0.0
 12
0.0
 22
0.0
 32
0.0
 14
0.0
 24
0.0
 34
0.0
 15
0.0
 25
0.0
 35
0.0
146
0.0
 13
0.0
 23
0.0
 33
0.0
 16
0.0
 26
0.0
 36
0.0
 17
0.0
 27
0.0
 37
0.0
 76
     0
330
A
331
15
  0
MATERIAL
  5
4CB
102
{ACAD_XDICTIONARY
360
4CC
102
}
102
{ACAD_REACTORS
330
4C2
102
}
330
4C2
100
AcDbMaterial
  1
ByBlock
 72
     0
 43
0.0208333333333333
 43
0.0
 43
0.0
 43
0.0
 43
0.0
 43
0.0208333333333333
 43
0.0
 43
0.0
 43
0.0
 43
0.0
 43
1.0
 43
0.0
 43
0.0
 43
0.0
 43
0.0
 43
1.0
 77
     0
 47
0.0208333333333333
 47
0.0
 47
0.0
 47
0.0
 47
0.0
 47
0.0208333333333333
 47
0.0
 47
0.0
 47
0.0
 47
0.0
 47
1.0
 47
0.0
 47
0.0
 47
0.0
 47
0.0
 47
1.0
171
     0
 49
0.0208333333333333
 49
0.0
 49
0.0
 49
0.0
 49
0.0
 49
0.0208333333333333
 49
0.0
 49
0.0
 49
0.0
 49
0.0
 49
1.0
 49
0.0
 49
0.0
 49
0.0
 49
0.0
 49
1.0
175
     0
142
0.0208333333333333
142
0.0
142
0.0
142
0.0
142
0.0
142
0.0208333333333333
142
0.0
142
0.0
142
0.0
142
0.0
142
1.0
142
0.0
142
0.0
142
0.0
142
0.0
142
1.0
179
     0
144
0.0208333333333333
144
0.0
144
0.0
144
0.0
144
0.0
144
0.0208333333333333
144
0.0
144
0.0
144
0.0
144
0.0
144
1.0
144
0.0
144
0.0
144
0.0
144
0.0
144
1.0
147
0.0208333333333333
147
0.0
147
0.0
147
0.0
147
0.0
147
0.0208333333333333
147
0.0
147
0.0
147
0.0
147
0.0
147
1.0
147
0.0
147
0.0
147
0.0
147
0.0
147
1.0
  0
MATERIAL
  5
4C3
102
{ACAD_XDICTIONARY
360
4C4
102
}
102
{ACAD_REACTORS
330
4C2
102
}
330
4C2
100
AcDbMaterial
  1
ByLayer
 72
     0
 43
0.0208333333333333
 43
0.0
 43
0.0
 43
0.0
 43
0.0
 43
0.0208333333333333
 43
0.0
 43
0.0
 43
0.0
 43
0.0
 43
1.0
 43
0.0
 43
0.0
 43
0.0
 43
0.0
 43
1.0
 77
     0
 47
0.0208333333333333
 47
0.0
 47
0.0
 47
0.0
 47
0.0
 47
0.0208333333333333
 47
0.0
 47
0.0
 47
0.0
 47
0.0
 47
1.0
 47
0.0
 47
0.0
 47
0.0
 47
0.0
 47
1.0
171
     0
 49
0.0208333333333333
 49
0.0
 49
0.0
 49
0.0
 49
0.0
 49
0.0208333333333333
 49
0.0
 49
0.0
 49
0.0
 49
0.0
 49
1.0
 49
0.0
 49
0.0
 49
0.0
 49
0.0
 49
1.0
175
     0
142
0.0208333333333333
142
0.0
142
0.0
142
0.0
142
0.0
142
0.0208333333333333
142
0.0
142
0.0
142
0.0
142
0.0
142
1.0
142
0.0
142
0.0
142
0.0
142
0.0
142
1.0
179
     0
144
0.0208333333333333
144
0.0
144
0.0
144
0.0
144
0.0
144
0.0208333333333333
144
0.0
144
0.0
144
0.0
144
0.0
144
1.0
144
0.0
144
0.0
144
0.0
144
0.0
144
1.0
147
0.0208333333333333
147
0.0
147
0.0
147
0.0
147
0.0
147
0.0208333333333333
147
0.0
147
0.0
147
0.0
147
0.0
147
1.0
147
0.0
147
0.0
147
0.0
147
0.0
147
1.0
  0
MATERIAL
  5
4D3
102
{ACAD_XDICTIONARY
360
4D4
102
}
102
{ACAD_REACTORS
330
4C2
102
}
330
4C2
100
AcDbMaterial
  1
Global
 72
     0
 43
0.0208333333333333
 43
0.0
 43
0.0
 43
0.0
 43
0.0
 43
0.0208333333333333
 43
0.0
 43
0.0
 43
0.0
 43
0.0
 43
1.0
 43
0.0
 43
0.0
 43
0.0
 43
0.0
 43
1.0
 77
     0
 47
0.0208333333333333
 47
0.0
 47
0.0
 47
0.0
 47
0.0
 47
0.0208333333333333
 47
0.0
 47
0.0
 47
0.0
 47
0.0
 47
1.0
 47
0.0
 47
0.0
 47
0.0
 47
0.0
 47
1.0
171
     0
 49
0.0208333333333333
 49
0.0
 49
0.0
 49
0.0
 49
0.0
 49
0.0208333333333333
 49
0.0
 49
0.0
 49
0.0
 49
0.0
 49
1.0
 49
0.0
 49
0.0
 49
0.0
 49
0.0
 49
1.0
175
     0
142
0.0208333333333333
142
0.0
142
0.0
142
0.0
142
0.0
142
0.0208333333333333
142
0.0
142
0.0
142
0.0
142
0.0
142
1.0
142
0.0
142
0.0
142
0.0
142
0.0
142
1.0
179
     0
144
0.0208333333333333
144
0.0
144
0.0
144
0.0
144
0.0
144
0.0208333333333333
144
0.0
144
0.0
144
0.0
144
0.0
144
1.0
144
0.0
144
0.0
144
0.0
144
0.0
144
1.0
147
0.0208333333333333
147
0.0
147
0.0
147
0.0
147
0.0
147
0.0208333333333333
147
0.0
147
0.0
147
0.0
147
0.0
147
1.0
147
0.0
147
0.0
147
0.0
147
0.0
147
1.0
  0
MLEADERSTYLE
  5
50A
102
{ACAD_XDICTIONARY
360
14F9
102
}
102
{ACAD_REACTORS
330
509
102
}
330
509
100
AcDbMLeaderStyle
170
     2
171
     1
172
     0
 90
        2
 40
0.0
 41
0.0
173
     1
 91
-1056964608
340
11
 92
       -2
290
     1
 42
2.0
291
     1
 43
0.36
  3
Standard
 44
4.0
300

342
17
174
     1
178
     6
175
     1
176
     0
 93
-1056964608
 45
4.0
292
     0
297
     0
 46
4.0
 94
-1056964608
 47
1.0
 49
1.0
140
1.0
293
     1
141
0.0
294
     1
177
     0
142
1.0
295
     0
296
     0
143
0.125
1001
ACAD_MLEADERVER
1070
     2
  0
MLINESTYLE
  5
1C
102
{ACAD_REACTORS
330
1B
102
}
330
1B
100
AcDbMlineStyle
  2
STANDARD
 70
     0
  3

 62
     0
 51
90.0
 52
90.0
 71
     2
 49
0.5
 62
   256
  6
BYLAYER
 49
-0.5
 62
   256
  6
BYLAYER
  0
ACDBPLACEHOLDER
  5
1D
102
{ACAD_REACTORS
330
1F
102
}
330
1F
  0
SCALE
  5
4F8
102
{ACAD_REACTORS
330
4F7
102
}
330
4F7
100
AcDbScale
 70
     0
300
1:1
140
1.0
141
1.0
290
     1
  0
SCALE
  5
4F9
102
{ACAD_REACTORS
330
4F7
102
}
330
4F7
100
AcDbScale
 70
     0
300
1:2
140
1.0
141
2.0
290
     0
  0
SCALE
  5
4FA
102
{ACAD_REACTORS
330
4F7
102
}
330
4F7
100
AcDbScale
 70
     0
300
1:4
140
1.0
141
4.0
290
     0
  0
SCALE
  5
4FB
102
{ACAD_REACTORS
330
4F7
102
}
330
4F7
100
AcDbScale
 70
     0
300
1:5
140
1.0
141
5.0
290
     0
  0
SCALE
  5
4FC
102
{ACAD_REACTORS
330
4F7
102
}
330
4F7
100
AcDbScale
 70
     0
300
1:8
140
1.0
141
8.0
290
     0
  0
SCALE
  5
4FD
102
{ACAD_REACTORS
330
4F7
102
}
330
4F7
100
AcDbScale
 70
     0
300
1:10
140
1.0
141
10.0
290
     0
  0
SCALE
  5
4FE
102
{ACAD_REACTORS
330
4F7
102
}
330
4F7
100
AcDbScale
 70
     0
300
1:16
140
1.0
141
16.0
290
     0
  0
SCALE
  5
4FF
102
{ACAD_REACTORS
330
4F7
102
}
330
4F7
100
AcDbScale
 70
     0
300
1:20
140
1.0
141
20.0
290
     0
  0
SCALE
  5
500
102
{ACAD_REACTORS
330
4F7
102
}
330
4F7
100
AcDbScale
 70
     0
300
1:30
140
1.0
141
30.0
290
     0
  0
SCALE
  5
501
102
{ACAD_REACTORS
330
4F7
102
}
330
4F7
100
AcDbScale
 70
     0
300
1:40
140
1.0
141
40.0
290
     0
  0
SCALE
  5
502
102
{ACAD_REACTORS
330
4F7
102
}
330
4F7
100
AcDbScale
 70
     0
300
1:50
140
1.0
141
50.0
290
     0
  0
SCALE
  5
503
102
{ACAD_REACTORS
330
4F7
102
}
330
4F7
100
AcDbScale
 70
     0
300
1:100
140
1.0
141
100.0
290
     0
  0
SCALE
  5
504
102
{ACAD_REACTORS
330
4F7
102
}
330
4F7
100
AcDbScale
 70
     0
300
2:1
140
2.0
141
1.0
290
     0
  0
SCALE
  5
505
102
{ACAD_REACTORS
330
4F7
102
}
330
4F7
100
AcDbScale
 70
     0
300
4:1
140
4.0
141
1.0
290
     0
  0
SCALE
  5
506
102
{ACAD_REACTORS
330
4F7
102
}
330
4F7
100
AcDbScale
 70
     0
300
8:1
140
8.0
141
1.0
290
     0
  0
SCALE
  5
507
102
{ACAD_REACTORS
330
4F7
102
}
330
4F7
100
AcDbScale
 70
     0
300
10:1
140
10.0
141
1.0
290
     0
  0
SCALE
  5
508
102
{ACAD_REACTORS
330
4F7
102
}
330
4F7
100
AcDbScale
 70
     0
300
100:1
140
100.0
141
1.0
290
     0
  0
ACDBSECTIONVIEWSTYLE
  5
50C
102
{ACAD_XDICTIONARY
360
14FB
102
}
102
{ACAD_REACTORS
330
50B
102
}
330
50B
100
AcDbModelDocViewStyle
 70
     0
  3
Metric50
290
     0
100
AcDbSectionViewStyle
 70
     0
 71
     0
 90
      102
 71
     1
340
0
 40
5.0
340
0
340
0
 40
5.0
300
I, O, Q, S, X, Z
 40
10.0
 90
        0
 40
2.5
 90
        0
 71
     2
340
13
 90
       25
340
13
 90
       50
 40
5.0
 40
2.5
 40
5.0
 71
     3
340
0
 40
5.0
 90
        0
 40
15.0
 90
        1
300
%<\AcVar ViewSectionStartId>%-%<\AcVar ViewSectionEndId>% (%<\AcVar ViewScale \f "%sn">%)
 71
     4
300
ANSI31
 40
1.0
 90
        0
290
     0
290
     0
 90
        6
 40
0.0
 40
1.570796326794896
 40
0.2617993877991494
 40
1.308996938995747
 40
-0.2617993877991494
 40
1.832595714594044
  0
TABLESTYLE
  5
4F6
102
{ACAD_XDICTIONARY
360
5E4
102
}
102
{ACAD_REACTORS
330
4F5
102
}
330
4F5
100
AcDbTableStyle
  3
Standard
 70
     0
 71
     0
 40
1.5
 41
1.5
280
     0
281
     0
  7
MX_NOTE_STANDARD
140
4.5
170
     2
 62
     0
 63
     7
283
     0
274
    -2
284
     1
 64
     0
275
    -2
285
     1
 65
     0
276
    -2
286
     1
 66
     0
277
    -2
287
     1
 67
     0
278
    -2
288
     1
 68
     0
279
    -2
289
     1
 69
     0
  7
MX_NOTE_STANDARD
140
6.0
170
     5
 62
     0
 63
     7
283
     0
274
    -2
284
     1
 64
     0
275
    -2
285
     1
 65
     0
276
    -2
286
     1
 66
     0
277
    -2
287
     1
 67
     0
278
    -2
288
     1
 68
     0
279
    -2
289
     1
 69
     0
  7
MX_NOTE_STANDARD
140
4.5
170
     5
 62
     0
 63
     7
283
     0
274
    -2
284
     1
 64
     0
275
    -2
285
     1
 65
     0
276
    -2
286
     1
 66
     0
277
    -2
287
     1
 67
     0
278
    -2
288
     1
 68
     0
279
    -2
289
     1
 69
     0
  0
VISUALSTYLE
  5
4E1
102
{ACAD_XDICTIONARY
360
14D2
102
}
102
{ACAD_REACTORS
330
4DB
102
}
330
4DB
100
AcDbVisualStyle
  2

 70
     4
 71
     0
 72
     2
 73
     0
 90
        0
 40
-0.6
 41
-30.0
 62
     5
 63
     7
 74
     1
 91
        4
 64
     7
 65
   257
 75
     1
175
     1
 42
1.0
 92
        0
 66
   257
 43
1.0
 76
     1
 77
     6
 78
     2
 67
     7
 79
     5
170
     0
171
     0
290
     0
174
     0
 93
        1
 44
0.0
173
     0
291
     0
 45
0.0
1001
ACAD
1000
AcDbSavedByObjectVersion
1070
     0
  0
VISUALSTYLE
  5
4E0
102
{ACAD_XDICTIONARY
360
14D0
102
}
102
{ACAD_REACTORS
330
4DB
102
}
330
4DB
100
AcDbVisualStyle
  2

 70
     7
 71
     1
 72
     0
 73
     1
 90
        0
 40
-0.6
 41
-30.0
 62
     5
 63
     7
 74
     0
 91
        4
 64
     7
 65
   257
 75
     1
175
     1
 42
1.0
 92
        8
 66
     7
 43
1.0
 76
     1
 77
     6
 78
     2
 67
     7
 79
     5
170
     0
171
     0
290
     0
174
     0
 93
        1
 44
0.0
173
     0
291
     1
 45
0.0
1001
ACAD
1000
AcDbSavedByObjectVersion
1070
     0
  0
VISUALSTYLE
  5
4E7
102
{ACAD_XDICTIONARY
360
14DE
102
}
102
{ACAD_REACTORS
330
4DB
102
}
330
4DB
100
AcDbVisualStyle
  2

 70
    12
 71
     2
 72
     2
 73
     0
 90
        0
 40
-0.6
 41
-30.0
 62
     5
 63
     7
 74
     1
 91
        4
 64
     7
 65
   257
 75
     1
175
     1
 42
1.0
 92
        8
 66
     7
 43
1.0
 76
     1
 77
     6
 78
     2
 67
     7
 79
     5
170
     0
171
     0
290
     0
174
     0
 93
        1
 44
50.0
173
     0
291
     1
 45
0.0
1001
ACAD
1000
AcDbSavedByObjectVersion
1070
     0
  0
VISUALSTYLE
  5
4EB
102
{ACAD_XDICTIONARY
360
14E6
102
}
102
{ACAD_REACTORS
330
4DB
102
}
330
4DB
100
AcDbVisualStyle
  2

 70
    16
 71
     2
 72
     2
 73
     3
 90
        0
 40
-0.6
 41
-30.0
 62
     5
 63
     8
 74
     1
 91
        4
 64
     7
 65
   257
 75
     1
175
     1
 42
1.0
 92
        8
 66
     8
 43
1.0
 76
     1
 77
     6
 78
     2
 67
     7
 79
     5
170
     0
171
     0
290
     0
174
     0
 93
        1
 44
0.0
173
     0
291
     1
 45
0.0
1001
ACAD
1000
AcDbSavedByObjectVersion
1070
     0
  0
VISUALSTYLE
  5
4E4
102
{ACAD_XDICTIONARY
360
14D8
102
}
102
{ACAD_REACTORS
330
4DB
102
}
330
4DB
100
AcDbVisualStyle
  2

 70
     9
 71
     3
 72
     2
 73
     0
 90
        0
 40
-0.6
 41
-30.0
 62
     5
 63
     7
 74
     2
 91
        2
 64
     7
 65
   257
 75
     1
175
     1
 42
179.0
 92
        8
 66
     7
 43
1.0
 76
     1
 77
     6
 78
     2
 67
     7
 79
     3
170
     0
171
     0
290
     0
174
     0
 93
        1
 44
0.0
173
     0
291
     0
 45
0.0
1001
ACAD
1000
AcDbSavedByObjectVersion
1070
     0
  0
VISUALSTYLE
  5
4E6
102
{ACAD_XDICTIONARY
360
14DC
102
}
102
{ACAD_REACTORS
330
4DB
102
}
330
4DB
100
AcDbVisualStyle
  2

 70
    11
 71
     2
 72
     2
 73
     0
 90
        0
 40
-0.6
 41
-30.0
 62
     5
 63
     7
 74
     1
 91
        4
 64
     7
 65
   257
 75
     1
175
     1
 42
1.0
 92
        8
 66
     7
 43
1.0
 76
     1
 77
     6
 78
     2
 67
     7
 79
     5
170
     0
171
     0
290
     0
174
     0
 93
        1
 44
-50.0
173
     0
291
     1
 45
0.0
1001
ACAD
1000
AcDbSavedByObjectVersion
1070
     0
  0
VISUALSTYLE
  5
4F3
102
{ACAD_XDICTIONARY
360
14F6
102
}
102
{ACAD_REACTORS
330
4DB
102
}
330
4DB
100
AcDbVisualStyle
  2

 70
    22
 71
     2
 72
     2
 73
     0
 90
        0
 40
-0.6
 41
-30.0
 62
     5
 63
     7
 74
     1
 91
        4
 64
     7
 65
   257
 75
     1
175
     1
 42
1.0
 92
        8
 66
     7
 43
1.0
 76
     1
 77
     6
 78
     2
 67
     7
 79
     5
170
     0
171
     0
290
     0
174
     0
 93
        1
 44
0.0
173
     0
291
     1
 45
0.0
1001
ACAD
1000
AcDbSavedByObjectVersion
1070
     0
  0
VISUALSTYLE
  5
4EA
102
{ACAD_XDICTIONARY
360
14E4
102
}
102
{ACAD_REACTORS
330
4DB
102
}
330
4DB
100
AcDbVisualStyle
  2

 70
    15
 71
     2
 72
     2
 73
     0
 90
        0
 40
-0.6
 41
-30.0
 62
     5
 63
     7
 74
     1
 91
        4
 64
     7
 65
   257
 75
     1
175
     1
 42
1.0
 92
        8
 66
     7
 43
1.0
 76
     1
 77
     6
 78
     2
 67
     7
 79
     5
170
     0
171
     0
290
     0
174
     0
 93
        1
 44
0.0
173
     0
291
     1
 45
0.0
1001
ACAD
1000
AcDbSavedByObjectVersion
1070
     0
  0
VISUALSTYLE
  5
4DC
102
{ACAD_XDICTIONARY
360
14C8
102
}
102
{ACAD_REACTORS
330
4DB
102
}
330
4DB
100
AcDbVisualStyle
  2

 70
     0
 71
     2
 72
     1
 73
     1
 90
        2
 40
-0.6
 41
30.0
 62
     5
 63
     7
 74
     0
 91
        0
 64
     7
 65
   257
 75
     1
175
     1
 42
1.0
 92
        8
 66
     7
 43
1.0
 76
     1
 77
     6
 78
     2
 67
     7
 79
     5
170
     0
171
     0
290
     0
174
     0
 93
       13
 44
0.0
173
     0
291
     1
 45
0.0
1001
ACAD
1000
AcDbSavedByObjectVersion
1070
     0
  0
VISUALSTYLE
  5
4DD
102
{ACAD_XDICTIONARY
360
14CA
102
}
102
{ACAD_REACTORS
330
4DB
102
}
330
4DB
100
AcDbVisualStyle
  2

 70
     1
 71
     2
 72
     1
 73
     1
 90
        2
 40
-0.6
 41
30.0
 62
     5
 63
     7
 74
     1
 91
        0
 64
     7
 65
   257
 75
     1
175
     1
 42
1.0
 92
        0
 66
   257
 43
1.0
 76
     1
 77
     6
 78
     2
 67
     7
 79
     5
170
     0
171
     0
290
     0
174
     0
 93
       13
 44
0.0
173
     0
291
     1
 45
0.0
1001
ACAD
1000
AcDbSavedByObjectVersion
1070
     0
  0
VISUALSTYLE
  5
4DE
102
{ACAD_XDICTIONARY
360
14CC
102
}
102
{ACAD_REACTORS
330
4DB
102
}
330
4DB
100
AcDbVisualStyle
  2

 70
     2
 71
     2
 72
     2
 73
     1
 90
        2
 40
-0.6
 41
30.0
 62
     5
 63
     7
 74
     0
 91
        0
 64
     7
 65
   257
 75
     1
175
     1
 42
1.0
 92
        0
 66
     7
 43
1.0
 76
     1
 77
     6
 78
     2
 67
     7
 79
     5
170
     0
171
     0
290
     0
174
     0
 93
       13
 44
0.0
173
     0
291
     1
 45
0.0
1001
ACAD
1000
AcDbSavedByObjectVersion
1070
     0
  0
VISUALSTYLE
  5
4DF
102
{ACAD_XDICTIONARY
360
14CE
102
}
102
{ACAD_REACTORS
330
4DB
102
}
330
4DB
100
AcDbVisualStyle
  2

 70
     3
 71
     2
 72
     2
 73
     1
 90
        2
 40
-0.6
 41
30.0
 62
     5
 63
     7
 74
     1
 91
        0
 64
     7
 65
   257
 75
     1
175
     1
 42
1.0
 92
        0
 66
   257
 43
1.0
 76
     1
 77
     6
 78
     2
 67
     7
 79
     5
170
     0
171
     0
290
     0
174
     0
 93
       13
 44
0.0
173
     0
291
     1
 45
0.0
1001
ACAD
1000
AcDbSavedByObjectVersion
1070
     0
  0
VISUALSTYLE
  5
4E3
102
{ACAD_XDICTIONARY
360
14D6
102
}
102
{ACAD_REACTORS
330
4DB
102
}
330
4DB
100
AcDbVisualStyle
  2

 70
     6
 71
     1
 72
     2
 73
     2
 90
        0
 40
-0.6
 41
-30.0
 62
     5
 63
     7
 74
     2
 91
        2
 64
     7
 65
   257
 75
     2
175
     1
 42
40.0
 92
        0
 66
   257
 43
1.0
 76
     1
 77
     6
 78
     2
 67
     7
 79
     3
170
     0
171
     0
290
     0
174
     0
 93
        1
 44
0.0
173
     0
291
     0
 45
0.0
1001
ACAD
1000
AcDbSavedByObjectVersion
1070
     0
  0
VISUALSTYLE
  5
4F1
102
{ACAD_XDICTIONARY
360
14F2
102
}
102
{ACAD_REACTORS
330
4DB
102
}
330
4DB
100
AcDbVisualStyle
  2

 70
    20
 71
     2
 72
     2
 73
     0
 90
        0
 40
-0.6
 41
-30.0
 62
     5
 63
     7
 74
     1
 91
        4
 64
     7
 65
   257
 75
     1
175
     1
 42
1.0
 92
       10
 66
     7
 43
1.0
 76
     1
 77
     6
 78
     2
 67
     7
 79
     5
170
     0
171
     0
290
     0
174
     0
 93
        1
 44
0.0
173
     0
291
     1
 45
0.0
1001
ACAD
1000
AcDbSavedByObjectVersion
1070
     0
  0
VISUALSTYLE
  5
4E9
102
{ACAD_XDICTIONARY
360
14E2
102
}
102
{ACAD_REACTORS
330
4DB
102
}
330
4DB
100
AcDbVisualStyle
  2

 70
    14
 71
     2
 72
     2
 73
     0
 90
        0
 40
-0.6
 41
-30.0
 62
     5
 63
     7
 74
     1
 91
        4
 64
     7
 65
   257
 75
     7
175
     7
 42
1.0
 92
        8
 66
     7
 43
1.0
 76
     1
 77
     6
 78
     2
 67
     7
 79
     5
170
     0
171
     0
290
     0
174
     0
 93
        1
 44
0.0
173
     0
291
     1
 45
0.0
1001
ACAD
1000
AcDbSavedByObjectVersion
1070
     0
  0
VISUALSTYLE
  5
4F2
102
{ACAD_XDICTIONARY
360
14F4
102
}
102
{ACAD_REACTORS
330
4DB
102
}
330
4DB
100
AcDbVisualStyle
  2

 70
    21
 71
     2
 72
     2
 73
     0
 90
        0
 40
-0.6
 41
-30.0
 62
     5
 63
     7
 74
     1
 91
        4
 64
     7
 65
   257
 75
     1
175
     1
 42
1.0
 92
        9
 66
     7
 43
1.0
 76
     1
 77
     6
 78
     2
 67
     7
 79
     5
170
     0
171
     0
290
     0
174
     0
 93
        1
 44
0.0
173
     0
291
     1
 45
0.0
1001
ACAD
1000
AcDbSavedByObjectVersion
1070
     0
  0
VISUALSTYLE
  5
4E5
102
{ACAD_XDICTIONARY
360
14DA
102
}
102
{ACAD_REACTORS
330
4DB
102
}
330
4DB
100
AcDbVisualStyle
  2

 70
     8
 71
     2
 72
     3
 73
     0
 90
        2
 40
-0.6
 41
30.0
 62
     5
 63
     7
 74
     0
 91
        0
 64
     7
 65
   257
 75
     1
175
     1
 42
1.0
 92
        8
 66
   257
 43
1.0
 76
     1
 77
     6
 78
     2
 67
     7
 79
     3
170
     0
171
     0
290
     0
174
     0
 93
       13
 44
0.0
173
     0
291
     0
 45
0.0
1001
ACAD
1000
AcDbSavedByObjectVersion
1070
     0
  0
VISUALSTYLE
  5
4F0
102
{ACAD_XDICTIONARY
360
14F0
102
}
102
{ACAD_REACTORS
330
4DB
102
}
330
4DB
100
AcDbVisualStyle
  2

 70
    27
 71
     2
 72
     2
 73
     1
 90
        2
 40
-0.6
 41
30.0
 62
     5
 63
     7
 74
     0
 91
        4
 64
     7
 65
   257
 75
     1
175
     1
 42
1.0
 92
        8
 66
   257
 43
1.0
 76
     1
 77
     6
 78
     2
 67
     8
 79
     3
170
     0
171
     0
290
     0
174
     0
 93
        5
 44
0.0
173
     0
291
     0
 45
0.0
1001
ACAD
1000
AcDbSavedByObjectVersion
1070
     0
  0
VISUALSTYLE
  5
4EF
102
{ACAD_XDICTIONARY
360
14EE
102
}
102
{ACAD_REACTORS
330
4DB
102
}
330
4DB
100
AcDbVisualStyle
  2

 70
    26
 71
     2
 72
     2
 73
     1
 90
        2
 40
-0.6
 41
30.0
 62
     5
 63
     7
 74
     1
 91
       10
 64
     7
 65
   257
 75
     2
175
     1
 42
1.0
 92
        8
 66
   257
 43
1.0
 76
     1
 77
     6
 78
     2
 67
     7
 79
     3
170
     0
171
     0
290
     0
174
     0
 93
        5
 44
0.0
173
     0
291
     0
 45
0.0
1001
ACAD
1000
AcDbSavedByObjectVersion
1070
     0
  0
VISUALSTYLE
  5
4EC
102
{ACAD_XDICTIONARY
360
14E8
102
}
102
{ACAD_REACTORS
330
4DB
102
}
330
4DB
100
AcDbVisualStyle
  2

 70
    23
 71
     2
 72
     2
 73
     3
 90
        0
 40
-0.6
 41
-30.0
 62
     5
 63
     7
 74
     2
 91
        2
 64
     7
 65
     7
 75
     1
175
     1
 42
40.0
 92
        8
 66
     7
 43
1.0
 76
     1
 77
     6
 78
     2
 67
     7
 79
     3
170
     0
171
     0
290
     0
174
     0
 93
        1
 44
0.0
173
     0
291
     0
 45
0.0
1001
ACAD
1000
AcDbSavedByObjectVersion
1070
     0
  0
VISUALSTYLE
  5
4ED
102
{ACAD_XDICTIONARY
360
14EA
102
}
102
{ACAD_REACTORS
330
4DB
102
}
330
4DB
100
AcDbVisualStyle
  2

 70
    24
 71
     1
 72
     2
 73
     2
 90
        0
 40
-0.6
 41
-30.0
 62
     5
 63
     7
 74
     2
 91
        2
 64
     7
 65
     7
 75
     1
175
     1
 42
40.0
 92
       11
 66
     7
 43
1.0
 76
     1
 77
     6
 78
     2
 67
     7
 79
     6
170
     0
171
     0
290
     0
174
     0
 93
        1
 44
0.0
173
     0
291
     0
 45
0.0
1001
ACAD
1000
AcDbSavedByObjectVersion
1070
     0
  0
VISUALSTYLE
  5
4E8
102
{ACAD_XDICTIONARY
360
14E0
102
}
102
{ACAD_REACTORS
330
4DB
102
}
330
4DB
100
AcDbVisualStyle
  2

 70
    13
 71
     2
 72
     2
 73
     0
 90
        0
 40
-0.6
 41
-30.0
 62
     5
 63
     7
 74
     1
 91
        4
 64
     7
 65
   257
 75
     1
175
     1
 42
1.0
 92
       12
 66
     7
 43
1.0
 76
     1
 77
     6
 78
     2
 67
     7
 79
     5
170
     0
171
     0
290
     0
174
     0
 93
        1
 44
0.0
173
     0
291
     1
 45
0.0
1001
ACAD
1000
AcDbSavedByObjectVersion
1070
     0
  0
VISUALSTYLE
  5
4E2
102
{ACAD_XDICTIONARY
360
14D4
102
}
102
{ACAD_REACTORS
330
4DB
102
}
330
4DB
100
AcDbVisualStyle
  2

 70
     5
 71
     0
 72
     2
 73
     0
 90
        0
 40
-0.6
 41
-30.0
 62
     5
 63
     7
 74
     1
 91
        4
 64
     7
 65
   257
 75
     1
175
     1
 42
1.0
 92
        0
 66
   257
 43
1.0
 76
     1
 77
     6
 78
     2
 67
     7
 79
     3
170
     0
171
     0
290
     0
174
     0
 93
        1
 44
0.0
173
     0
291
     0
 45
0.0
1001
ACAD
1000
AcDbSavedByObjectVersion
1070
     0
  0
VISUALSTYLE
  5
4EE
102
{ACAD_XDICTIONARY
360
14EC
102
}
102
{ACAD_REACTORS
330
4DB
102
}
330
4DB
100
AcDbVisualStyle
  2

 70
    25
 71
     2
 72
     2
 73
     1
 90
        1
 40
0.5
 41
-30.0
 62
     5
 63
     7
 74
     1
 91
        0
 64
     7
 65
   257
 75
     1
175
     1
 42
1.0
 92
        8
 66
     7
 43
1.0
 76
     1
 77
     6
 78
     2
 67
     7
 79
     3
170
     0
171
     0
290
     0
174
     0
 93
       13
 44
0.0
173
     0
291
     0
 45
0.0
1001
ACAD
1000
AcDbSavedByObjectVersion
1070
     0
  0
DICTIONARYVAR
  5
5DF
102
{ACAD_REACTORS
330
5DA
102
}
330
5DA
100
DictionaryVariables
280
     0
  1
1:1
  0
DICTIONARYVAR
  5
5DC
102
{ACAD_REACTORS
330
5DA
102
}
330
5DA
100
DictionaryVariables
280
     0
  1
STANDARD
  0
DICTIONARYVAR
  5
5DB
102
{ACAD_REACTORS
330
5DA
102
}
330
5DA
100
DictionaryVariables
280
     0
  1
STANDARD
  0
DICTIONARYVAR
  5
5DD
102
{ACAD_REACTORS
330
5DA
102
}
330
5DA
100
DictionaryVariables
280
     0
  1
Metric50
  0
DICTIONARYVAR
  5
5DE
102
{ACAD_REACTORS
330
5DA
102
}
330
5DA
100
DictionaryVariables
280
     0
  1
Metric50
  0
DICTIONARYVAR
  5
5E2
102
{ACAD_REACTORS
330
5DA
102
}
330
5DA
100
DictionaryVariables
280
     0
  1
1
  0
DICTIONARYVAR
  5
5E1
102
{ACAD_REACTORS
330
5DA
102
}
330
5DA
100
DictionaryVariables
280
     0
  1
0
  0
DICTIONARYVAR
  5
5E0
102
{ACAD_REACTORS
330
5DA
102
}
330
5DA
100
DictionaryVariables
280
     0
  1
127
  0
DICTIONARYVAR
  5
14C0
102
{ACAD_REACTORS
330
5DA
102
}
330
5DA
100
DictionaryVariables
280
     0
  1
2
  0
DICTIONARY
  5
14FD
330
50E
100
AcDbDictionary
280
     1
281
     1
  3
ACAD_XREC_ROUNDTRIP
360
14FE
  0
DICTIONARY
  5
14C6
330
21
100
AcDbDictionary
280
     1
281
     1
  3
ACAD_XREC_ROUNDTRIP
360
14C7
  0
DICTIONARY
  5
14C4
330
20
100
AcDbDictionary
280
     1
281
     1
  3
ACAD_XREC_ROUNDTRIP
360
14C5
  0
DICTIONARY
  5
4CC
330
4CB
100
AcDbDictionary
280
     1
281
     1
  3
ACAD_XREC_ROUNDTRIP
360
5ED
  3
BUMPTILE
360
4CE
  3
DIFFUSETILE
360
4CD
  3
OPACITYTILE
360
4D1
  3
REFLECTIONTILE
360
4D0
  3
REFRACTIONTILE
360
4D2
  3
SPECULARTILE
360
4CF
  0
DICTIONARY
  5
4C4
330
4C3
100
AcDbDictionary
280
     1
281
     1
  3
ACAD_XREC_ROUNDTRIP
360
5EC
  3
BUMPTILE
360
4C6
  3
DIFFUSETILE
360
4C5
  3
OPACITYTILE
360
4C9
  3
REFLECTIONTILE
360
4C8
  3
REFRACTIONTILE
360
4CA
  3
SPECULARTILE
360
4C7
  0
DICTIONARY
  5
4D4
330
4D3
100
AcDbDictionary
280
     1
281
     1
  3
ACAD_XREC_ROUNDTRIP
360
5EE
  3
BUMPTILE
360
4D6
  3
DIFFUSETILE
360
4D5
  3
OPACITYTILE
360
4D9
  3
REFLECTIONTILE
360
4D8
  3
REFRACTIONTILE
360
4DA
  3
SPECULARTILE
360
4D7
  0
DICTIONARY
  5
14F9
330
50A
100
AcDbDictionary
280
     1
281
     1
  3
ACAD_XREC_ROUNDTRIP
360
14FA
  0
DICTIONARY
  5
14FB
330
50C
100
AcDbDictionary
280
     1
281
     1
  3
ACAD_XREC_ROUNDTRIP
360
14FC
  0
DICTIONARY
  5
5E4
330
4F6
100
AcDbDictionary
280
     1
281
     1
  3
ACAD_ROUNDTRIP_2008_TABLESTYLE_CELLSTYLEMAP
360
14C1
  3
ACAD_XREC_ROUNDTRIP
360
14F8
  0
DICTIONARY
  5
14D2
330
4E1
100
AcDbDictionary
280
     1
281
     1
  3
ACAD_XREC_ROUNDTRIP
360
14D3
  0
DICTIONARY
  5
14D0
330
4E0
100
AcDbDictionary
280
     1
281
     1
  3
ACAD_XREC_ROUNDTRIP
360
14D1
  0
DICTIONARY
  5
14DE
330
4E7
100
AcDbDictionary
280
     1
281
     1
  3
ACAD_XREC_ROUNDTRIP
360
14DF
  0
DICTIONARY
  5
14E6
330
4EB
100
AcDbDictionary
280
     1
281
     1
  3
ACAD_XREC_ROUNDTRIP
360
14E7
  0
DICTIONARY
  5
14D8
330
4E4
100
AcDbDictionary
280
     1
281
     1
  3
ACAD_XREC_ROUNDTRIP
360
14D9
  0
DICTIONARY
  5
14DC
330
4E6
100
AcDbDictionary
280
     1
281
     1
  3
ACAD_XREC_ROUNDTRIP
360
14DD
  0
DICTIONARY
  5
14F6
330
4F3
100
AcDbDictionary
280
     1
281
     1
  3
ACAD_XREC_ROUNDTRIP
360
14F7
  0
DICTIONARY
  5
14E4
330
4EA
100
AcDbDictionary
280
     1
281
     1
  3
ACAD_XREC_ROUNDTRIP
360
14E5
  0
DICTIONARY
  5
14C8
330
4DC
100
AcDbDictionary
280
     1
281
     1
  3
ACAD_XREC_ROUNDTRIP
360
14C9
  0
DICTIONARY
  5
14CA
330
4DD
100
AcDbDictionary
280
     1
281
     1
  3
ACAD_XREC_ROUNDTRIP
360
14CB
  0
DICTIONARY
  5
14CC
330
4DE
100
AcDbDictionary
280
     1
281
     1
  3
ACAD_XREC_ROUNDTRIP
360
14CD
  0
DICTIONARY
  5
14CE
330
4DF
100
AcDbDictionary
280
     1
281
     1
  3
ACAD_XREC_ROUNDTRIP
360
14CF
  0
DICTIONARY
  5
14D6
330
4E3
100
AcDbDictionary
280
     1
281
     1
  3
ACAD_XREC_ROUNDTRIP
360
14D7
  0
DICTIONARY
  5
14F2
330
4F1
100
AcDbDictionary
280
     1
281
     1
  3
ACAD_XREC_ROUNDTRIP
360
14F3
  0
DICTIONARY
  5
14E2
330
4E9
100
AcDbDictionary
280
     1
281
     1
  3
ACAD_XREC_ROUNDTRIP
360
14E3
  0
DICTIONARY
  5
14F4
330
4F2
100
AcDbDictionary
280
     1
281
     1
  3
ACAD_XREC_ROUNDTRIP
360
14F5
  0
DICTIONARY
  5
14DA
330
4E5
100
AcDbDictionary
280
     1
281
     1
  3
ACAD_XREC_ROUNDTRIP
360
14DB
  0
DICTIONARY
  5
14F0
330
4F0
100
AcDbDictionary
280
     1
281
     1
  3
ACAD_XREC_ROUNDTRIP
360
14F1
  0
DICTIONARY
  5
14EE
330
4EF
100
AcDbDictionary
280
     1
281
     1
  3
ACAD_XREC_ROUNDTRIP
360
14EF
  0
DICTIONARY
  5
14E8
330
4EC
100
AcDbDictionary
280
     1
281
     1
  3
ACAD_XREC_ROUNDTRIP
360
14E9
  0
DICTIONARY
  5
14EA
330
4ED
100
AcDbDictionary
280
     1
281
     1
  3
ACAD_XREC_ROUNDTRIP
360
14EB
  0
DICTIONARY
  5
14E0
330
4E8
100
AcDbDictionary
280
     1
281
     1
  3
ACAD_XREC_ROUNDTRIP
360
14E1
  0
DICTIONARY
  5
14D4
330
4E2
100
AcDbDictionary
280
     1
281
     1
  3
ACAD_XREC_ROUNDTRIP
360
14D5
  0
DICTIONARY
  5
14EC
330
4EE
100
AcDbDictionary
280
     1
281
     1
  3
ACAD_XREC_ROUNDTRIP
360
14ED
  0
XRECORD
  5
14FE
102
{ACAD_REACTORS
330
14FD
102
}
330
14FD
100
AcDbXrecord
280
     1
102
DISPLAYNAME
  1
Metric50
102
FLAGS
 90
        0
  0
XRECORD
  5
14C7
102
{ACAD_REACTORS
330
14C6
102
}
330
14C6
100
AcDbXrecord
280
     1
102
SHADEPLOT
 70
     0
102
SHADEPLOTRESLEVEL
 70
     2
102
SHADEPLOTCUSTOMDPI
 70
   300
  0
XRECORD
  5
14C5
102
{ACAD_REACTORS
330
14C4
102
}
330
14C4
100
AcDbXrecord
280
     1
102
SHADEPLOT
 70
     0
102
SHADEPLOTRESLEVEL
 70
     2
102
SHADEPLOTCUSTOMDPI
 70
   300
  0
XRECORD
  5
5ED
102
{ACAD_REACTORS
330
4CC
102
}
330
4CC
100
AcDbXrecord
280
     1
102
MATERIAL
148
0.0
149
0.0
149
0.0
 93
        0
 94
      127
282
     0
 72
     0
 77
     0
171
     0
175
     0
179
     0
273
     0
  0
XRECORD
  5
4CE
102
{ACAD_REACTORS
330
4CC
102
}
330
4CC
100
AcDbXrecord
280
     1
270
     1
271
     1
  0
XRECORD
  5
4CD
102
{ACAD_REACTORS
330
4CC
102
}
330
4CC
100
AcDbXrecord
280
     1
270
     1
271
     1
  0
XRECORD
  5
4D1
102
{ACAD_REACTORS
330
4CC
102
}
330
4CC
100
AcDbXrecord
280
     1
270
     1
271
     1
  0
XRECORD
  5
4D0
102
{ACAD_REACTORS
330
4CC
102
}
330
4CC
100
AcDbXrecord
280
     1
270
     1
271
     1
  0
XRECORD
  5
4D2
102
{ACAD_REACTORS
330
4CC
102
}
330
4CC
100
AcDbXrecord
280
     1
270
     1
271
     1
  0
XRECORD
  5
4CF
102
{ACAD_REACTORS
330
4CC
102
}
330
4CC
100
AcDbXrecord
280
     1
270
     1
271
     1
  0
XRECORD
  5
5EC
102
{ACAD_REACTORS
330
4C4
102
}
330
4C4
100
AcDbXrecord
280
     1
102
MATERIAL
148
0.0
149
0.0
149
0.0
 93
        0
 94
      127
282
     0
 72
     0
 77
     0
171
     0
175
     0
179
     0
273
     0
  0
XRECORD
  5
4C6
102
{ACAD_REACTORS
330
4C4
102
}
330
4C4
100
AcDbXrecord
280
     1
270
     1
271
     1
  0
XRECORD
  5
4C5
102
{ACAD_REACTORS
330
4C4
102
}
330
4C4
100
AcDbXrecord
280
     1
270
     1
271
     1
  0
XRECORD
  5
4C9
102
{ACAD_REACTORS
330
4C4
102
}
330
4C4
100
AcDbXrecord
280
     1
270
     1
271
     1
  0
XRECORD
  5
4C8
102
{ACAD_REACTORS
330
4C4
102
}
330
4C4
100
AcDbXrecord
280
     1
270
     1
271
     1
  0
XRECORD
  5
4CA
102
{ACAD_REACTORS
330
4C4
102
}
330
4C4
100
AcDbXrecord
280
     1
270
     1
271
     1
  0
XRECORD
  5
4C7
102
{ACAD_REACTORS
330
4C4
102
}
330
4C4
100
AcDbXrecord
280
     1
270
     1
271
     1
  0
XRECORD
  5
5EE
102
{ACAD_REACTORS
330
4D4
102
}
330
4D4
100
AcDbXrecord
280
     1
102
MATERIAL
148
0.0
149
0.0
149
0.0
 93
        0
 94
      127
282
     0
 72
     0
 77
     0
171
     0
175
     0
179
     0
273
     0
  0
XRECORD
  5
4D6
102
{ACAD_REACTORS
330
4D4
102
}
330
4D4
100
AcDbXrecord
280
     1
270
     1
271
     1
  0
XRECORD
  5
4D5
102
{ACAD_REACTORS
330
4D4
102
}
330
4D4
100
AcDbXrecord
280
     1
270
     1
271
     1
  0
XRECORD
  5
4D9
102
{ACAD_REACTORS
330
4D4
102
}
330
4D4
100
AcDbXrecord
280
     1
270
     1
271
     1
  0
XRECORD
  5
4D8
102
{ACAD_REACTORS
330
4D4
102
}
330
4D4
100
AcDbXrecord
280
     1
270
     1
271
     1
  0
XRECORD
  5
4DA
102
{ACAD_REACTORS
330
4D4
102
}
330
4D4
100
AcDbXrecord
280
     1
270
     1
271
     1
  0
XRECORD
  5
4D7
102
{ACAD_REACTORS
330
4D4
102
}
330
4D4
100
AcDbXrecord
280
     1
270
     1
271
     1
  0
XRECORD
  5
14FA
102
{ACAD_REACTORS
330
14F9
102
}
330
14F9
100
AcDbXrecord
280
     1
102
ACAD_ROUNDTRIP_2012_MLEADER_STYLE
298
     1
  0
XRECORD
  5
14FC
102
{ACAD_REACTORS
330
14FB
102
}
330
14FB
100
AcDbXrecord
280
     1
102
DISPLAYNAME
  1
Metric50
102
FLAGS
 90
        0
  0
CELLSTYLEMAP
  5
14C1
102
{ACAD_REACTORS
330
5E4
102
}
330
5E4
100
AcDbCellStyleMap
 90
        3
300
CELLSTYLE
  1
TABLEFORMAT_BEGIN
 90
        5
170
     1
 91
        0
 92
    32768
 62
   257
 93
        1
300
CONTENTFORMAT
  1
CONTENTFORMAT_BEGIN
 90
        0
 91
        0
 92
      512
 93
        0
300

 40
0.0
140
1.0
 94
        5
 62
     0
340
17
144
6.0
309
CONTENTFORMAT_END
171
     1
301
MARGIN
  1
CELLMARGIN_BEGIN
 40
1.5
 40
1.5
 40
1.5
 40
1.5
 40
0.18
 40
0.18
309
CELLMARGIN_END
 94
        6
 95
        1
302
GRIDFORMAT
  1
GRIDFORMAT_BEGIN
 90
        0
 91
        1
 62
     0
 92
       -2
340
0
 93
        0
 40
1.125
309
GRIDFORMAT_END
 95
        2
302
GRIDFORMAT
  1
GRIDFORMAT_BEGIN
 90
        0
 91
        1
 62
     0
 92
       -2
340
0
 93
        0
 40
1.125
309
GRIDFORMAT_END
 95
        4
302
GRIDFORMAT
  1
GRIDFORMAT_BEGIN
 90
        0
 91
        1
 62
     0
 92
       -2
340
0
 93
        0
 40
1.125
309
GRIDFORMAT_END
 95
        8
302
GRIDFORMAT
  1
GRIDFORMAT_BEGIN
 90
        0
 91
        1
 62
     0
 92
       -2
340
0
 93
        0
 40
1.125
309
GRIDFORMAT_END
 95
       16
302
GRIDFORMAT
  1
GRIDFORMAT_BEGIN
 90
        0
 91
        1
 62
     0
 92
       -2
340
0
 93
        0
 40
1.125
309
GRIDFORMAT_END
 95
       32
302
GRIDFORMAT
  1
GRIDFORMAT_BEGIN
 90
        0
 91
        1
 62
     0
 92
       -2
340
0
 93
        0
 40
1.125
309
GRIDFORMAT_END
309
TABLEFORMAT_END
  1
CELLSTYLE_BEGIN
 90
        1
 91
        1
300
_TITLE
309
CELLSTYLE_END
300
CELLSTYLE
  1
TABLEFORMAT_BEGIN
 90
        5
170
     1
 91
        0
 92
        0
 62
   257
 93
        1
300
CONTENTFORMAT
  1
CONTENTFORMAT_BEGIN
 90
        0
 91
        0
 92
      512
 93
        0
300

 40
0.0
140
1.0
 94
        5
 62
     0
340
17
144
4.5
309
CONTENTFORMAT_END
171
     1
301
MARGIN
  1
CELLMARGIN_BEGIN
 40
1.5
 40
1.5
 40
1.5
 40
1.5
 40
0.18
 40
0.18
309
CELLMARGIN_END
 94
        6
 95
        1
302
GRIDFORMAT
  1
GRIDFORMAT_BEGIN
 90
        0
 91
        1
 62
     0
 92
       -2
340
0
 93
        0
 40
1.125
309
GRIDFORMAT_END
 95
        2
302
GRIDFORMAT
  1
GRIDFORMAT_BEGIN
 90
        0
 91
        1
 62
     0
 92
       -2
340
0
 93
        0
 40
1.125
309
GRIDFORMAT_END
 95
        4
302
GRIDFORMAT
  1
GRIDFORMAT_BEGIN
 90
        0
 91
        1
 62
     0
 92
       -2
340
0
 93
        0
 40
1.125
309
GRIDFORMAT_END
 95
        8
302
GRIDFORMAT
  1
GRIDFORMAT_BEGIN
 90
        0
 91
        1
 62
     0
 92
       -2
340
0
 93
        0
 40
1.125
309
GRIDFORMAT_END
 95
       16
302
GRIDFORMAT
  1
GRIDFORMAT_BEGIN
 90
        0
 91
        1
 62
     0
 92
       -2
340
0
 93
        0
 40
1.125
309
GRIDFORMAT_END
 95
       32
302
GRIDFORMAT
  1
GRIDFORMAT_BEGIN
 90
        0
 91
        1
 62
     0
 92
       -2
340
0
 93
        0
 40
1.125
309
GRIDFORMAT_END
309
TABLEFORMAT_END
  1
CELLSTYLE_BEGIN
 90
        2
 91
        1
300
_HEADER
309
CELLSTYLE_END
300
CELLSTYLE
  1
TABLEFORMAT_BEGIN
 90
        5
170
     1
 91
        0
 92
        0
 62
   257
 93
        1
300
CONTENTFORMAT
  1
CONTENTFORMAT_BEGIN
 90
        0
 91
        0
 92
      512
 93
        0
300

 40
0.0
140
1.0
 94
        2
 62
     0
340
17
144
4.5
309
CONTENTFORMAT_END
171
     1
301
MARGIN
  1
CELLMARGIN_BEGIN
 40
1.5
 40
1.5
 40
1.5
 40
1.5
 40
0.18
 40
0.18
309
CELLMARGIN_END
 94
        6
 95
        1
302
GRIDFORMAT
  1
GRIDFORMAT_BEGIN
 90
        0
 91
        1
 62
     0
 92
       -2
340
0
 93
        0
 40
1.125
309
GRIDFORMAT_END
 95
        2
302
GRIDFORMAT
  1
GRIDFORMAT_BEGIN
 90
        0
 91
        1
 62
     0
 92
       -2
340
0
 93
        0
 40
1.125
309
GRIDFORMAT_END
 95
        4
302
GRIDFORMAT
  1
GRIDFORMAT_BEGIN
 90
        0
 91
        1
 62
     0
 92
       -2
340
0
 93
        0
 40
1.125
309
GRIDFORMAT_END
 95
        8
302
GRIDFORMAT
  1
GRIDFORMAT_BEGIN
 90
        0
 91
        1
 62
     0
 92
       -2
340
0
 93
        0
 40
1.125
309
GRIDFORMAT_END
 95
       16
302
GRIDFORMAT
  1
GRIDFORMAT_BEGIN
 90
        0
 91
        1
 62
     0
 92
       -2
340
0
 93
        0
 40
1.125
309
GRIDFORMAT_END
 95
       32
302
GRIDFORMAT
  1
GRIDFORMAT_BEGIN
 90
        0
 91
        1
 62
     0
 92
       -2
340
0
 93
        0
 40
1.125
309
GRIDFORMAT_END
309
TABLEFORMAT_END
  1
CELLSTYLE_BEGIN
 90
        3
 91
        2
300
_DATA
309
CELLSTYLE_END
  0
XRECORD
  5
14F8
102
{ACAD_REACTORS
330
5E4
102
}
330
5E4
100
AcDbXrecord
280
     1
102
ACAD_ROUNDTRIP_PRE2007_TABLESTYLE
 90
      512
 91
        0
  1

 92
      512
 93
        0
  2

 94
      512
 95
        0
  3

  0
XRECORD
  5
14D3
102
{ACAD_REACTORS
330
14D2
102
}
330
14D2
100
AcDbXrecord
280
     1
102
RTVSPost2010Prop28
280
     1
102
RTVSPost2010PropOp28
 70
     1
102
RTVSPost2010Prop29
280
     1
102
RTVSPost2010PropOp29
 70
     1
102
RTVSPost2010Prop30
280
     0
102
RTVSPost2010PropOp30
 70
     1
102
RTVSPost2010Prop31
280
     0
102
RTVSPost2010PropOp31
 70
     1
102
RTVSPost2010Prop32
280
     0
102
RTVSPost2010PropOp32
 70
     1
102
RTVSPost2010Prop33
280
     0
102
RTVSPost2010PropOp33
 70
     1
102
RTVSPost2010Prop34
280
     0
102
RTVSPost2010PropOp34
 70
     1
102
RTVSPost2010Prop35
280
     0
102
RTVSPost2010PropOp35
 70
     1
102
RTVSPost2010Prop36
280
     0
102
RTVSPost2010PropOp36
 70
     1
102
RTVSPost2010Prop37
 90
       50
102
RTVSPost2010PropOp37
 70
     1
102
RTVSPost2010Prop38
140
0.0
102
RTVSPost2010PropOp38
 70
     1
102
RTVSPost2010Prop39
140
1.0
102
RTVSPost2010PropOp39
 70
     1
102
RTVSPost2010Prop40
 90
        0
102
RTVSPost2010PropOp40
 70
     1
102
RTVSPost2010Prop41ColorIndex
 90
       18
102
RTVSPost2010Prop41ColorRGB
 90
        0
102
RTVSPost2010PropOp41
 70
     1
102
RTVSPost2010Prop42
 90
       50
102
RTVSPost2010PropOp42
 70
     1
102
RTVSPost2010Prop43
 90
        3
102
RTVSPost2010PropOp43
 70
     1
102
RTVSPost2010Prop44ColorIndex
 90
        5
102
RTVSPost2010Prop44ColorRGB
 90
      255
102
RTVSPost2010PropOp44
 70
     1
102
RTVSPost2010Prop45
280
     0
102
RTVSPost2010PropOp45
 70
     1
102
RTVSPost2010Prop46
 90
       50
102
RTVSPost2010PropOp46
 70
     1
102
RTVSPost2010Prop47
 90
       50
102
RTVSPost2010PropOp47
 70
     1
102
RTVSPost2010Prop48
 90
       50
102
RTVSPost2010PropOp48
 70
     1
102
RTVSPost2010Prop49
280
     0
102
RTVSPost2010PropOp49
 70
     1
102
RTVSPost2010Prop50
 90
       50
102
RTVSPost2010PropOp50
 70
     1
102
RTVSPost2010Prop51ColorIndex
 90
      256
102
RTVSPost2010Prop51ColorRGB
 90
-16777216
102
RTVSPost2010PropOp51
 70
     0
102
RTVSPost2010Prop52
140
1.0
102
RTVSPost2010PropOp52
 70
     0
102
RTVSPost2010Prop53
 90
        2
102
RTVSPost2010PropOp53
 70
     1
102
RTVSPost2010Prop54
  1
strokes_ogs.tif
102
RTVSPost2010PropOp54
 70
     1
102
RTVSPost2010Prop55
280
     0
102
RTVSPost2010PropOp55
 70
     1
102
RTVSPost2010Prop56
140
1.0
102
RTVSPost2010PropOp56
 70
     1
102
RTVSPost2010Prop57
140
1.0
102
RTVSPost2010PropOp57
 70
     1
102
RTVSPropertyOp0
 70
     1
102
RTVSPropertyOp1
 70
     1
102
RTVSPropertyOp2
 70
     1
102
RTVSPropertyOp3
 70
     1
102
RTVSPropertyOp4
 70
     1
102
RTVSPropertyOp5
 70
     1
102
RTVSPropertyOp6
 70
     1
102
RTVSPropertyOp7
 70
     1
102
RTVSPropertyOp8
 70
     1
102
RTVSPropertyOp9
 70
     1
102
RTVSPropertyOp10
 70
     1
102
RTVSPropertyOp11
 70
     1
102
RTVSPropertyOp12
 70
     1
102
RTVSPropertyOp13
 70
     1
102
RTVSPropertyOp14
 70
     1
102
RTVSPropertyOp15
 70
     1
102
RTVSPropertyOp16
 70
     1
102
RTVSPropertyOp17
 70
     1
102
RTVSPropertyOp18
 70
     1
102
RTVSPropertyOp19
 70
     1
102
RTVSPropertyOp20
 70
     1
102
RTVSPropertyOp21
 70
     1
102
RTVSPropertyOp22
 70
     1
102
RTVSPropertyOp23
 70
     1
102
RTVSPropertyOp24
 70
     1
102
RTVSPropertyOp25
 70
     1
102
RTVSPropertyOp26
 70
     1
102
RTVSPropertyOp27
 70
     1
102
RTVSPropertyOp28
 70
     1
102
RTVSPropertyOp29
 70
     1
102
RTVSPropertyOp30
 70
     1
102
RTVSPropertyOp31
 70
     1
102
RTVSPropertyOp32
 70
     1
102
RTVSPropertyOp33
 70
     1
102
RTVSPropertyOp34
 70
     1
102
RTVSPropertyOp35
 70
     1
102
RTVSPropertyOp36
 70
     1
102
RTVSPropertyOp37
 70
     1
102
RTVSPropertyOp38
 70
     1
102
RTVSPropertyOp39
 70
     1
102
RTVSPropertyOp40
 70
     1
102
RTVSPropertyOp41
 70
     1
102
RTVSPropertyOp42
 70
     1
102
RTVSPropertyOp43
 70
     1
102
RTVSPropertyOp44
 70
     1
102
RTVSPropertyOp45
 70
     1
102
RTVSPropertyOp46
 70
     1
102
RTVSPropertyOp47
 70
     1
102
RTVSPropertyOp48
 70
     1
102
RTVSPropertyOp49
 70
     1
102
RTVSPropertyOp50
 70
     1
102
RTVSPropertyOp51
 70
     0
102
RTVSPropertyOp52
 70
     0
102
RTVSPropertyOp53
 70
     1
102
RTVSPropertyOp54
 70
     1
102
RTVSPropertyOp55
 70
     1
102
RTVSPropertyOp56
 70
     1
102
RTVSPropertyOp57
 70
     1
102
RTVSPropertyOp58
 70
     1
102
RTVSPropertyOp59
 70
     1
102
RTVSPropertyOp60
 70
     1
102
RTVSPropertyOp61
 70
     1
102
RTVSPropertyOp62
 70
     1
  0
XRECORD
  5
14D1
102
{ACAD_REACTORS
330
14D0
102
}
330
14D0
100
AcDbXrecord
280
     1
102
RTVSPost2010Prop28
280
     0
102
RTVSPost2010PropOp28
 70
     1
102
RTVSPost2010Prop29
280
     1
102
RTVSPost2010PropOp29
 70
     1
102
RTVSPost2010Prop30
280
     1
102
RTVSPost2010PropOp30
 70
     1
102
RTVSPost2010Prop31
280
     0
102
RTVSPost2010PropOp31
 70
     1
102
RTVSPost2010Prop32
280
     0
102
RTVSPost2010PropOp32
 70
     1
102
RTVSPost2010Prop33
280
     0
102
RTVSPost2010PropOp33
 70
     1
102
RTVSPost2010Prop34
280
     0
102
RTVSPost2010PropOp34
 70
     1
102
RTVSPost2010Prop35
280
     0
102
RTVSPost2010PropOp35
 70
     1
102
RTVSPost2010Prop36
280
     0
102
RTVSPost2010PropOp36
 70
     1
102
RTVSPost2010Prop37
 90
       50
102
RTVSPost2010PropOp37
 70
     1
102
RTVSPost2010Prop38
140
0.0
102
RTVSPost2010PropOp38
 70
     1
102
RTVSPost2010Prop39
140
1.0
102
RTVSPost2010PropOp39
 70
     1
102
RTVSPost2010Prop40
 90
        0
102
RTVSPost2010PropOp40
 70
     1
102
RTVSPost2010Prop41ColorIndex
 90
       18
102
RTVSPost2010Prop41ColorRGB
 90
        0
102
RTVSPost2010PropOp41
 70
     1
102
RTVSPost2010Prop42
 90
       50
102
RTVSPost2010PropOp42
 70
     1
102
RTVSPost2010Prop43
 90
        3
102
RTVSPost2010PropOp43
 70
     1
102
RTVSPost2010Prop44ColorIndex
 90
        5
102
RTVSPost2010Prop44ColorRGB
 90
      255
102
RTVSPost2010PropOp44
 70
     1
102
RTVSPost2010Prop45
280
     0
102
RTVSPost2010PropOp45
 70
     1
102
RTVSPost2010Prop46
 90
       50
102
RTVSPost2010PropOp46
 70
     1
102
RTVSPost2010Prop47
 90
       50
102
RTVSPost2010PropOp47
 70
     1
102
RTVSPost2010Prop48
 90
       50
102
RTVSPost2010PropOp48
 70
     1
102
RTVSPost2010Prop49
280
     0
102
RTVSPost2010PropOp49
 70
     1
102
RTVSPost2010Prop50
 90
       50
102
RTVSPost2010PropOp50
 70
     1
102
RTVSPost2010Prop51ColorIndex
 90
      256
102
RTVSPost2010Prop51ColorRGB
 90
-16777216
102
RTVSPost2010PropOp51
 70
     0
102
RTVSPost2010Prop52
140
1.0
102
RTVSPost2010PropOp52
 70
     0
102
RTVSPost2010Prop53
 90
        2
102
RTVSPost2010PropOp53
 70
     1
102
RTVSPost2010Prop54
  1
strokes_ogs.tif
102
RTVSPost2010PropOp54
 70
     1
102
RTVSPost2010Prop55
280
     0
102
RTVSPost2010PropOp55
 70
     1
102
RTVSPost2010Prop56
140
1.0
102
RTVSPost2010PropOp56
 70
     1
102
RTVSPost2010Prop57
140
1.0
102
RTVSPost2010PropOp57
 70
     1
102
RTVSPropertyOp0
 70
     1
102
RTVSPropertyOp1
 70
     1
102
RTVSPropertyOp2
 70
     1
102
RTVSPropertyOp3
 70
     1
102
RTVSPropertyOp4
 70
     1
102
RTVSPropertyOp5
 70
     1
102
RTVSPropertyOp6
 70
     1
102
RTVSPropertyOp7
 70
     1
102
RTVSPropertyOp8
 70
     1
102
RTVSPropertyOp9
 70
     1
102
RTVSPropertyOp10
 70
     1
102
RTVSPropertyOp11
 70
     1
102
RTVSPropertyOp12
 70
     1
102
RTVSPropertyOp13
 70
     1
102
RTVSPropertyOp14
 70
     1
102
RTVSPropertyOp15
 70
     1
102
RTVSPropertyOp16
 70
     1
102
RTVSPropertyOp17
 70
     1
102
RTVSPropertyOp18
 70
     1
102
RTVSPropertyOp19
 70
     1
102
RTVSPropertyOp20
 70
     1
102
RTVSPropertyOp21
 70
     1
102
RTVSPropertyOp22
 70
     1
102
RTVSPropertyOp23
 70
     1
102
RTVSPropertyOp24
 70
     1
102
RTVSPropertyOp25
 70
     1
102
RTVSPropertyOp26
 70
     1
102
RTVSPropertyOp27
 70
     1
102
RTVSPropertyOp28
 70
     1
102
RTVSPropertyOp29
 70
     1
102
RTVSPropertyOp30
 70
     1
102
RTVSPropertyOp31
 70
     1
102
RTVSPropertyOp32
 70
     1
102
RTVSPropertyOp33
 70
     1
102
RTVSPropertyOp34
 70
     1
102
RTVSPropertyOp35
 70
     1
102
RTVSPropertyOp36
 70
     1
102
RTVSPropertyOp37
 70
     1
102
RTVSPropertyOp38
 70
     1
102
RTVSPropertyOp39
 70
     1
102
RTVSPropertyOp40
 70
     1
102
RTVSPropertyOp41
 70
     1
102
RTVSPropertyOp42
 70
     1
102
RTVSPropertyOp43
 70
     1
102
RTVSPropertyOp44
 70
     1
102
RTVSPropertyOp45
 70
     1
102
RTVSPropertyOp46
 70
     1
102
RTVSPropertyOp47
 70
     1
102
RTVSPropertyOp48
 70
     1
102
RTVSPropertyOp49
 70
     1
102
RTVSPropertyOp50
 70
     1
102
RTVSPropertyOp51
 70
     0
102
RTVSPropertyOp52
 70
     0
102
RTVSPropertyOp53
 70
     1
102
RTVSPropertyOp54
 70
     1
102
RTVSPropertyOp55
 70
     1
102
RTVSPropertyOp56
 70
     1
102
RTVSPropertyOp57
 70
     1
102
RTVSPropertyOp58
 70
     1
102
RTVSPropertyOp59
 70
     1
102
RTVSPropertyOp60
 70
     1
102
RTVSPropertyOp61
 70
     1
102
RTVSPropertyOp62
 70
     1
  0
XRECORD
  5
14DF
102
{ACAD_REACTORS
330
14DE
102
}
330
14DE
100
AcDbXrecord
280
     1
102
RTVSPost2010Prop28
280
     0
102
RTVSPost2010PropOp28
 70
     1
102
RTVSPost2010Prop29
280
     1
102
RTVSPost2010PropOp29
 70
     1
102
RTVSPost2010Prop30
280
     1
102
RTVSPost2010PropOp30
 70
     1
102
RTVSPost2010Prop31
280
     0
102
RTVSPost2010PropOp31
 70
     1
102
RTVSPost2010Prop32
280
     0
102
RTVSPost2010PropOp32
 70
     1
102
RTVSPost2010Prop33
280
     0
102
RTVSPost2010PropOp33
 70
     1
102
RTVSPost2010Prop34
280
     0
102
RTVSPost2010PropOp34
 70
     1
102
RTVSPost2010Prop35
280
     0
102
RTVSPost2010PropOp35
 70
     1
102
RTVSPost2010Prop36
280
     0
102
RTVSPost2010PropOp36
 70
     1
102
RTVSPost2010Prop37
 90
       50
102
RTVSPost2010PropOp37
 70
     1
102
RTVSPost2010Prop38
140
0.0
102
RTVSPost2010PropOp38
 70
     1
102
RTVSPost2010Prop39
140
1.0
102
RTVSPost2010PropOp39
 70
     1
102
RTVSPost2010Prop40
 90
        0
102
RTVSPost2010PropOp40
 70
     1
102
RTVSPost2010Prop41ColorIndex
 90
       18
102
RTVSPost2010Prop41ColorRGB
 90
        0
102
RTVSPost2010PropOp41
 70
     1
102
RTVSPost2010Prop42
 90
       50
102
RTVSPost2010PropOp42
 70
     1
102
RTVSPost2010Prop43
 90
        3
102
RTVSPost2010PropOp43
 70
     1
102
RTVSPost2010Prop44ColorIndex
 90
        5
102
RTVSPost2010Prop44ColorRGB
 90
      255
102
RTVSPost2010PropOp44
 70
     1
102
RTVSPost2010Prop45
280
     0
102
RTVSPost2010PropOp45
 70
     1
102
RTVSPost2010Prop46
 90
       50
102
RTVSPost2010PropOp46
 70
     1
102
RTVSPost2010Prop47
 90
       50
102
RTVSPost2010PropOp47
 70
     1
102
RTVSPost2010Prop48
 90
       50
102
RTVSPost2010PropOp48
 70
     1
102
RTVSPost2010Prop49
280
     0
102
RTVSPost2010PropOp49
 70
     1
102
RTVSPost2010Prop50
 90
       50
102
RTVSPost2010PropOp50
 70
     1
102
RTVSPost2010Prop51ColorIndex
 90
      256
102
RTVSPost2010Prop51ColorRGB
 90
-16777216
102
RTVSPost2010PropOp51
 70
     0
102
RTVSPost2010Prop52
140
1.0
102
RTVSPost2010PropOp52
 70
     0
102
RTVSPost2010Prop53
 90
        2
102
RTVSPost2010PropOp53
 70
     1
102
RTVSPost2010Prop54
  1
strokes_ogs.tif
102
RTVSPost2010PropOp54
 70
     1
102
RTVSPost2010Prop55
280
     0
102
RTVSPost2010PropOp55
 70
     1
102
RTVSPost2010Prop56
140
1.0
102
RTVSPost2010PropOp56
 70
     1
102
RTVSPost2010Prop57
140
1.0
102
RTVSPost2010PropOp57
 70
     1
102
RTVSPropertyOp0
 70
     1
102
RTVSPropertyOp1
 70
     1
102
RTVSPropertyOp2
 70
     1
102
RTVSPropertyOp3
 70
     1
102
RTVSPropertyOp4
 70
     1
102
RTVSPropertyOp5
 70
     1
102
RTVSPropertyOp6
 70
     1
102
RTVSPropertyOp7
 70
     1
102
RTVSPropertyOp8
 70
     1
102
RTVSPropertyOp9
 70
     1
102
RTVSPropertyOp10
 70
     1
102
RTVSPropertyOp11
 70
     1
102
RTVSPropertyOp12
 70
     1
102
RTVSPropertyOp13
 70
     1
102
RTVSPropertyOp14
 70
     1
102
RTVSPropertyOp15
 70
     1
102
RTVSPropertyOp16
 70
     1
102
RTVSPropertyOp17
 70
     1
102
RTVSPropertyOp18
 70
     1
102
RTVSPropertyOp19
 70
     1
102
RTVSPropertyOp20
 70
     1
102
RTVSPropertyOp21
 70
     1
102
RTVSPropertyOp22
 70
     1
102
RTVSPropertyOp23
 70
     1
102
RTVSPropertyOp24
 70
     1
102
RTVSPropertyOp25
 70
     1
102
RTVSPropertyOp26
 70
     1
102
RTVSPropertyOp27
 70
     1
102
RTVSPropertyOp28
 70
     1
102
RTVSPropertyOp29
 70
     1
102
RTVSPropertyOp30
 70
     1
102
RTVSPropertyOp31
 70
     1
102
RTVSPropertyOp32
 70
     1
102
RTVSPropertyOp33
 70
     1
102
RTVSPropertyOp34
 70
     1
102
RTVSPropertyOp35
 70
     1
102
RTVSPropertyOp36
 70
     1
102
RTVSPropertyOp37
 70
     1
102
RTVSPropertyOp38
 70
     1
102
RTVSPropertyOp39
 70
     1
102
RTVSPropertyOp40
 70
     1
102
RTVSPropertyOp41
 70
     1
102
RTVSPropertyOp42
 70
     1
102
RTVSPropertyOp43
 70
     1
102
RTVSPropertyOp44
 70
     1
102
RTVSPropertyOp45
 70
     1
102
RTVSPropertyOp46
 70
     1
102
RTVSPropertyOp47
 70
     1
102
RTVSPropertyOp48
 70
     1
102
RTVSPropertyOp49
 70
     1
102
RTVSPropertyOp50
 70
     1
102
RTVSPropertyOp51
 70
     0
102
RTVSPropertyOp52
 70
     0
102
RTVSPropertyOp53
 70
     1
102
RTVSPropertyOp54
 70
     1
102
RTVSPropertyOp55
 70
     1
102
RTVSPropertyOp56
 70
     1
102
RTVSPropertyOp57
 70
     1
102
RTVSPropertyOp58
 70
     1
102
RTVSPropertyOp59
 70
     1
102
RTVSPropertyOp60
 70
     1
102
RTVSPropertyOp61
 70
     1
102
RTVSPropertyOp62
 70
     1
  0
XRECORD
  5
14E7
102
{ACAD_REACTORS
330
14E6
102
}
330
14E6
100
AcDbXrecord
280
     1
102
RTVSPost2010Prop28
280
     0
102
RTVSPost2010PropOp28
 70
     1
102
RTVSPost2010Prop29
280
     1
102
RTVSPost2010PropOp29
 70
     1
102
RTVSPost2010Prop30
280
     1
102
RTVSPost2010PropOp30
 70
     1
102
RTVSPost2010Prop31
280
     0
102
RTVSPost2010PropOp31
 70
     1
102
RTVSPost2010Prop32
280
     0
102
RTVSPost2010PropOp32
 70
     1
102
RTVSPost2010Prop33
280
     0
102
RTVSPost2010PropOp33
 70
     1
102
RTVSPost2010Prop34
280
     0
102
RTVSPost2010PropOp34
 70
     1
102
RTVSPost2010Prop35
280
     0
102
RTVSPost2010PropOp35
 70
     1
102
RTVSPost2010Prop36
280
     0
102
RTVSPost2010PropOp36
 70
     1
102
RTVSPost2010Prop37
 90
       50
102
RTVSPost2010PropOp37
 70
     1
102
RTVSPost2010Prop38
140
0.0
102
RTVSPost2010PropOp38
 70
     1
102
RTVSPost2010Prop39
140
1.0
102
RTVSPost2010PropOp39
 70
     1
102
RTVSPost2010Prop40
 90
        0
102
RTVSPost2010PropOp40
 70
     1
102
RTVSPost2010Prop41ColorIndex
 90
       18
102
RTVSPost2010Prop41ColorRGB
 90
        0
102
RTVSPost2010PropOp41
 70
     1
102
RTVSPost2010Prop42
 90
       50
102
RTVSPost2010PropOp42
 70
     1
102
RTVSPost2010Prop43
 90
        3
102
RTVSPost2010PropOp43
 70
     1
102
RTVSPost2010Prop44ColorIndex
 90
        5
102
RTVSPost2010Prop44ColorRGB
 90
      255
102
RTVSPost2010PropOp44
 70
     1
102
RTVSPost2010Prop45
280
     0
102
RTVSPost2010PropOp45
 70
     1
102
RTVSPost2010Prop46
 90
       50
102
RTVSPost2010PropOp46
 70
     1
102
RTVSPost2010Prop47
 90
       50
102
RTVSPost2010PropOp47
 70
     1
102
RTVSPost2010Prop48
 90
       50
102
RTVSPost2010PropOp48
 70
     1
102
RTVSPost2010Prop49
280
     0
102
RTVSPost2010PropOp49
 70
     1
102
RTVSPost2010Prop50
 90
       50
102
RTVSPost2010PropOp50
 70
     1
102
RTVSPost2010Prop51ColorIndex
 90
      256
102
RTVSPost2010Prop51ColorRGB
 90
-16777216
102
RTVSPost2010PropOp51
 70
     0
102
RTVSPost2010Prop52
140
1.0
102
RTVSPost2010PropOp52
 70
     0
102
RTVSPost2010Prop53
 90
        2
102
RTVSPost2010PropOp53
 70
     1
102
RTVSPost2010Prop54
  1
strokes_ogs.tif
102
RTVSPost2010PropOp54
 70
     1
102
RTVSPost2010Prop55
280
     0
102
RTVSPost2010PropOp55
 70
     1
102
RTVSPost2010Prop56
140
1.0
102
RTVSPost2010PropOp56
 70
     1
102
RTVSPost2010Prop57
140
1.0
102
RTVSPost2010PropOp57
 70
     1
102
RTVSPropertyOp0
 70
     1
102
RTVSPropertyOp1
 70
     1
102
RTVSPropertyOp2
 70
     1
102
RTVSPropertyOp3
 70
     1
102
RTVSPropertyOp4
 70
     1
102
RTVSPropertyOp5
 70
     1
102
RTVSPropertyOp6
 70
     1
102
RTVSPropertyOp7
 70
     1
102
RTVSPropertyOp8
 70
     1
102
RTVSPropertyOp9
 70
     1
102
RTVSPropertyOp10
 70
     1
102
RTVSPropertyOp11
 70
     1
102
RTVSPropertyOp12
 70
     1
102
RTVSPropertyOp13
 70
     1
102
RTVSPropertyOp14
 70
     1
102
RTVSPropertyOp15
 70
     1
102
RTVSPropertyOp16
 70
     1
102
RTVSPropertyOp17
 70
     1
102
RTVSPropertyOp18
 70
     1
102
RTVSPropertyOp19
 70
     1
102
RTVSPropertyOp20
 70
     1
102
RTVSPropertyOp21
 70
     1
102
RTVSPropertyOp22
 70
     1
102
RTVSPropertyOp23
 70
     1
102
RTVSPropertyOp24
 70
     1
102
RTVSPropertyOp25
 70
     1
102
RTVSPropertyOp26
 70
     1
102
RTVSPropertyOp27
 70
     1
102
RTVSPropertyOp28
 70
     1
102
RTVSPropertyOp29
 70
     1
102
RTVSPropertyOp30
 70
     1
102
RTVSPropertyOp31
 70
     1
102
RTVSPropertyOp32
 70
     1
102
RTVSPropertyOp33
 70
     1
102
RTVSPropertyOp34
 70
     1
102
RTVSPropertyOp35
 70
     1
102
RTVSPropertyOp36
 70
     1
102
RTVSPropertyOp37
 70
     1
102
RTVSPropertyOp38
 70
     1
102
RTVSPropertyOp39
 70
     1
102
RTVSPropertyOp40
 70
     1
102
RTVSPropertyOp41
 70
     1
102
RTVSPropertyOp42
 70
     1
102
RTVSPropertyOp43
 70
     1
102
RTVSPropertyOp44
 70
     1
102
RTVSPropertyOp45
 70
     1
102
RTVSPropertyOp46
 70
     1
102
RTVSPropertyOp47
 70
     1
102
RTVSPropertyOp48
 70
     1
102
RTVSPropertyOp49
 70
     1
102
RTVSPropertyOp50
 70
     1
102
RTVSPropertyOp51
 70
     0
102
RTVSPropertyOp52
 70
     0
102
RTVSPropertyOp53
 70
     1
102
RTVSPropertyOp54
 70
     1
102
RTVSPropertyOp55
 70
     1
102
RTVSPropertyOp56
 70
     1
102
RTVSPropertyOp57
 70
     1
102
RTVSPropertyOp58
 70
     1
102
RTVSPropertyOp59
 70
     1
102
RTVSPropertyOp60
 70
     1
102
RTVSPropertyOp61
 70
     1
102
RTVSPropertyOp62
 70
     1
  0
XRECORD
  5
14D9
102
{ACAD_REACTORS
330
14D8
102
}
330
14D8
100
AcDbXrecord
280
     1
102
RTVSPost2010Prop28
280
     0
102
RTVSPost2010PropOp28
 70
     1
102
RTVSPost2010Prop29
280
     1
102
RTVSPost2010PropOp29
 70
     1
102
RTVSPost2010Prop30
280
     1
102
RTVSPost2010PropOp30
 70
     1
102
RTVSPost2010Prop31
280
     0
102
RTVSPost2010PropOp31
 70
     1
102
RTVSPost2010Prop32
280
     0
102
RTVSPost2010PropOp32
 70
     1
102
RTVSPost2010Prop33
280
     0
102
RTVSPost2010PropOp33
 70
     1
102
RTVSPost2010Prop34
280
     0
102
RTVSPost2010PropOp34
 70
     1
102
RTVSPost2010Prop35
280
     0
102
RTVSPost2010PropOp35
 70
     1
102
RTVSPost2010Prop36
280
     0
102
RTVSPost2010PropOp36
 70
     1
102
RTVSPost2010Prop37
 90
       50
102
RTVSPost2010PropOp37
 70
     1
102
RTVSPost2010Prop38
140
0.0
102
RTVSPost2010PropOp38
 70
     1
102
RTVSPost2010Prop39
140
1.0
102
RTVSPost2010PropOp39
 70
     1
102
RTVSPost2010Prop40
 90
        0
102
RTVSPost2010PropOp40
 70
     1
102
RTVSPost2010Prop41ColorIndex
 90
       18
102
RTVSPost2010Prop41ColorRGB
 90
        0
102
RTVSPost2010PropOp41
 70
     1
102
RTVSPost2010Prop42
 90
       50
102
RTVSPost2010PropOp42
 70
     1
102
RTVSPost2010Prop43
 90
        3
102
RTVSPost2010PropOp43
 70
     1
102
RTVSPost2010Prop44ColorIndex
 90
        5
102
RTVSPost2010Prop44ColorRGB
 90
      255
102
RTVSPost2010PropOp44
 70
     1
102
RTVSPost2010Prop45
280
     0
102
RTVSPost2010PropOp45
 70
     1
102
RTVSPost2010Prop46
 90
       50
102
RTVSPost2010PropOp46
 70
     1
102
RTVSPost2010Prop47
 90
       50
102
RTVSPost2010PropOp47
 70
     1
102
RTVSPost2010Prop48
 90
       50
102
RTVSPost2010PropOp48
 70
     1
102
RTVSPost2010Prop49
280
     0
102
RTVSPost2010PropOp49
 70
     1
102
RTVSPost2010Prop50
 90
       50
102
RTVSPost2010PropOp50
 70
     1
102
RTVSPost2010Prop51ColorIndex
 90
      256
102
RTVSPost2010Prop51ColorRGB
 90
-16777216
102
RTVSPost2010PropOp51
 70
     0
102
RTVSPost2010Prop52
140
1.0
102
RTVSPost2010PropOp52
 70
     0
102
RTVSPost2010Prop53
 90
        2
102
RTVSPost2010PropOp53
 70
     1
102
RTVSPost2010Prop54
  1
strokes_ogs.tif
102
RTVSPost2010PropOp54
 70
     1
102
RTVSPost2010Prop55
280
     0
102
RTVSPost2010PropOp55
 70
     1
102
RTVSPost2010Prop56
140
1.0
102
RTVSPost2010PropOp56
 70
     1
102
RTVSPost2010Prop57
140
1.0
102
RTVSPost2010PropOp57
 70
     1
102
RTVSPropertyOp0
 70
     1
102
RTVSPropertyOp1
 70
     1
102
RTVSPropertyOp2
 70
     1
102
RTVSPropertyOp3
 70
     1
102
RTVSPropertyOp4
 70
     1
102
RTVSPropertyOp5
 70
     1
102
RTVSPropertyOp6
 70
     1
102
RTVSPropertyOp7
 70
     1
102
RTVSPropertyOp8
 70
     1
102
RTVSPropertyOp9
 70
     1
102
RTVSPropertyOp10
 70
     1
102
RTVSPropertyOp11
 70
     1
102
RTVSPropertyOp12
 70
     1
102
RTVSPropertyOp13
 70
     1
102
RTVSPropertyOp14
 70
     1
102
RTVSPropertyOp15
 70
     1
102
RTVSPropertyOp16
 70
     1
102
RTVSPropertyOp17
 70
     1
102
RTVSPropertyOp18
 70
     1
102
RTVSPropertyOp19
 70
     1
102
RTVSPropertyOp20
 70
     1
102
RTVSPropertyOp21
 70
     1
102
RTVSPropertyOp22
 70
     1
102
RTVSPropertyOp23
 70
     1
102
RTVSPropertyOp24
 70
     1
102
RTVSPropertyOp25
 70
     1
102
RTVSPropertyOp26
 70
     1
102
RTVSPropertyOp27
 70
     1
102
RTVSPropertyOp28
 70
     1
102
RTVSPropertyOp29
 70
     1
102
RTVSPropertyOp30
 70
     1
102
RTVSPropertyOp31
 70
     1
102
RTVSPropertyOp32
 70
     1
102
RTVSPropertyOp33
 70
     1
102
RTVSPropertyOp34
 70
     1
102
RTVSPropertyOp35
 70
     1
102
RTVSPropertyOp36
 70
     1
102
RTVSPropertyOp37
 70
     1
102
RTVSPropertyOp38
 70
     1
102
RTVSPropertyOp39
 70
     1
102
RTVSPropertyOp40
 70
     1
102
RTVSPropertyOp41
 70
     1
102
RTVSPropertyOp42
 70
     1
102
RTVSPropertyOp43
 70
     1
102
RTVSPropertyOp44
 70
     1
102
RTVSPropertyOp45
 70
     1
102
RTVSPropertyOp46
 70
     1
102
RTVSPropertyOp47
 70
     1
102
RTVSPropertyOp48
 70
     1
102
RTVSPropertyOp49
 70
     1
102
RTVSPropertyOp50
 70
     1
102
RTVSPropertyOp51
 70
     0
102
RTVSPropertyOp52
 70
     0
102
RTVSPropertyOp53
 70
     1
102
RTVSPropertyOp54
 70
     1
102
RTVSPropertyOp55
 70
     1
102
RTVSPropertyOp56
 70
     1
102
RTVSPropertyOp57
 70
     1
102
RTVSPropertyOp58
 70
     1
102
RTVSPropertyOp59
 70
     1
102
RTVSPropertyOp60
 70
     1
102
RTVSPropertyOp61
 70
     1
102
RTVSPropertyOp62
 70
     1
  0
XRECORD
  5
14DD
102
{ACAD_REACTORS
330
14DC
102
}
330
14DC
100
AcDbXrecord
280
     1
102
RTVSPost2010Prop28
280
     0
102
RTVSPost2010PropOp28
 70
     1
102
RTVSPost2010Prop29
280
     1
102
RTVSPost2010PropOp29
 70
     1
102
RTVSPost2010Prop30
280
     1
102
RTVSPost2010PropOp30
 70
     1
102
RTVSPost2010Prop31
280
     0
102
RTVSPost2010PropOp31
 70
     1
102
RTVSPost2010Prop32
280
     0
102
RTVSPost2010PropOp32
 70
     1
102
RTVSPost2010Prop33
280
     0
102
RTVSPost2010PropOp33
 70
     1
102
RTVSPost2010Prop34
280
     0
102
RTVSPost2010PropOp34
 70
     1
102
RTVSPost2010Prop35
280
     0
102
RTVSPost2010PropOp35
 70
     1
102
RTVSPost2010Prop36
280
     0
102
RTVSPost2010PropOp36
 70
     1
102
RTVSPost2010Prop37
 90
       50
102
RTVSPost2010PropOp37
 70
     1
102
RTVSPost2010Prop38
140
0.0
102
RTVSPost2010PropOp38
 70
     1
102
RTVSPost2010Prop39
140
1.0
102
RTVSPost2010PropOp39
 70
     1
102
RTVSPost2010Prop40
 90
        0
102
RTVSPost2010PropOp40
 70
     1
102
RTVSPost2010Prop41ColorIndex
 90
       18
102
RTVSPost2010Prop41ColorRGB
 90
        0
102
RTVSPost2010PropOp41
 70
     1
102
RTVSPost2010Prop42
 90
       50
102
RTVSPost2010PropOp42
 70
     1
102
RTVSPost2010Prop43
 90
        3
102
RTVSPost2010PropOp43
 70
     1
102
RTVSPost2010Prop44ColorIndex
 90
        5
102
RTVSPost2010Prop44ColorRGB
 90
      255
102
RTVSPost2010PropOp44
 70
     1
102
RTVSPost2010Prop45
280
     0
102
RTVSPost2010PropOp45
 70
     1
102
RTVSPost2010Prop46
 90
       50
102
RTVSPost2010PropOp46
 70
     1
102
RTVSPost2010Prop47
 90
       50
102
RTVSPost2010PropOp47
 70
     1
102
RTVSPost2010Prop48
 90
       50
102
RTVSPost2010PropOp48
 70
     1
102
RTVSPost2010Prop49
280
     0
102
RTVSPost2010PropOp49
 70
     1
102
RTVSPost2010Prop50
 90
       50
102
RTVSPost2010PropOp50
 70
     1
102
RTVSPost2010Prop51ColorIndex
 90
      256
102
RTVSPost2010Prop51ColorRGB
 90
-16777216
102
RTVSPost2010PropOp51
 70
     0
102
RTVSPost2010Prop52
140
1.0
102
RTVSPost2010PropOp52
 70
     0
102
RTVSPost2010Prop53
 90
        2
102
RTVSPost2010PropOp53
 70
     1
102
RTVSPost2010Prop54
  1
strokes_ogs.tif
102
RTVSPost2010PropOp54
 70
     1
102
RTVSPost2010Prop55
280
     0
102
RTVSPost2010PropOp55
 70
     1
102
RTVSPost2010Prop56
140
1.0
102
RTVSPost2010PropOp56
 70
     1
102
RTVSPost2010Prop57
140
1.0
102
RTVSPost2010PropOp57
 70
     1
102
RTVSPropertyOp0
 70
     1
102
RTVSPropertyOp1
 70
     1
102
RTVSPropertyOp2
 70
     1
102
RTVSPropertyOp3
 70
     1
102
RTVSPropertyOp4
 70
     1
102
RTVSPropertyOp5
 70
     1
102
RTVSPropertyOp6
 70
     1
102
RTVSPropertyOp7
 70
     1
102
RTVSPropertyOp8
 70
     1
102
RTVSPropertyOp9
 70
     1
102
RTVSPropertyOp10
 70
     1
102
RTVSPropertyOp11
 70
     1
102
RTVSPropertyOp12
 70
     1
102
RTVSPropertyOp13
 70
     1
102
RTVSPropertyOp14
 70
     1
102
RTVSPropertyOp15
 70
     1
102
RTVSPropertyOp16
 70
     1
102
RTVSPropertyOp17
 70
     1
102
RTVSPropertyOp18
 70
     1
102
RTVSPropertyOp19
 70
     1
102
RTVSPropertyOp20
 70
     1
102
RTVSPropertyOp21
 70
     1
102
RTVSPropertyOp22
 70
     1
102
RTVSPropertyOp23
 70
     1
102
RTVSPropertyOp24
 70
     1
102
RTVSPropertyOp25
 70
     1
102
RTVSPropertyOp26
 70
     1
102
RTVSPropertyOp27
 70
     1
102
RTVSPropertyOp28
 70
     1
102
RTVSPropertyOp29
 70
     1
102
RTVSPropertyOp30
 70
     1
102
RTVSPropertyOp31
 70
     1
102
RTVSPropertyOp32
 70
     1
102
RTVSPropertyOp33
 70
     1
102
RTVSPropertyOp34
 70
     1
102
RTVSPropertyOp35
 70
     1
102
RTVSPropertyOp36
 70
     1
102
RTVSPropertyOp37
 70
     1
102
RTVSPropertyOp38
 70
     1
102
RTVSPropertyOp39
 70
     1
102
RTVSPropertyOp40
 70
     1
102
RTVSPropertyOp41
 70
     1
102
RTVSPropertyOp42
 70
     1
102
RTVSPropertyOp43
 70
     1
102
RTVSPropertyOp44
 70
     1
102
RTVSPropertyOp45
 70
     1
102
RTVSPropertyOp46
 70
     1
102
RTVSPropertyOp47
 70
     1
102
RTVSPropertyOp48
 70
     1
102
RTVSPropertyOp49
 70
     1
102
RTVSPropertyOp50
 70
     1
102
RTVSPropertyOp51
 70
     0
102
RTVSPropertyOp52
 70
     0
102
RTVSPropertyOp53
 70
     1
102
RTVSPropertyOp54
 70
     1
102
RTVSPropertyOp55
 70
     1
102
RTVSPropertyOp56
 70
     1
102
RTVSPropertyOp57
 70
     1
102
RTVSPropertyOp58
 70
     1
102
RTVSPropertyOp59
 70
     1
102
RTVSPropertyOp60
 70
     1
102
RTVSPropertyOp61
 70
     1
102
RTVSPropertyOp62
 70
     1
  0
XRECORD
  5
14F7
102
{ACAD_REACTORS
330
14F6
102
}
330
14F6
100
AcDbXrecord
280
     1
102
RTVSPost2010Prop28
280
     0
102
RTVSPost2010PropOp28
 70
     0
102
RTVSPost2010Prop29
280
     1
102
RTVSPost2010PropOp29
 70
     0
102
RTVSPost2010Prop30
280
     1
102
RTVSPost2010PropOp30
 70
     0
102
RTVSPost2010Prop31
280
     0
102
RTVSPost2010PropOp31
 70
     0
102
RTVSPost2010Prop32
280
     0
102
RTVSPost2010PropOp32
 70
     0
102
RTVSPost2010Prop33
280
     0
102
RTVSPost2010PropOp33
 70
     0
102
RTVSPost2010Prop34
280
     0
102
RTVSPost2010PropOp34
 70
     0
102
RTVSPost2010Prop35
280
     0
102
RTVSPost2010PropOp35
 70
     0
102
RTVSPost2010Prop36
280
     0
102
RTVSPost2010PropOp36
 70
     0
102
RTVSPost2010Prop37
 90
       50
102
RTVSPost2010PropOp37
 70
     0
102
RTVSPost2010Prop38
140
0.0
102
RTVSPost2010PropOp38
 70
     0
102
RTVSPost2010Prop39
140
1.0
102
RTVSPost2010PropOp39
 70
     0
102
RTVSPost2010Prop40
 90
        0
102
RTVSPost2010PropOp40
 70
     0
102
RTVSPost2010Prop41ColorIndex
 90
       18
102
RTVSPost2010Prop41ColorRGB
 90
        0
102
RTVSPost2010PropOp41
 70
     0
102
RTVSPost2010Prop42
 90
       50
102
RTVSPost2010PropOp42
 70
     0
102
RTVSPost2010Prop43
 90
        3
102
RTVSPost2010PropOp43
 70
     0
102
RTVSPost2010Prop44ColorIndex
 90
        5
102
RTVSPost2010Prop44ColorRGB
 90
      255
102
RTVSPost2010PropOp44
 70
     0
102
RTVSPost2010Prop45
280
     0
102
RTVSPost2010PropOp45
 70
     0
102
RTVSPost2010Prop46
 90
       50
102
RTVSPost2010PropOp46
 70
     0
102
RTVSPost2010Prop47
 90
       50
102
RTVSPost2010PropOp47
 70
     0
102
RTVSPost2010Prop48
 90
       50
102
RTVSPost2010PropOp48
 70
     0
102
RTVSPost2010Prop49
280
     0
102
RTVSPost2010PropOp49
 70
     0
102
RTVSPost2010Prop50
 90
       50
102
RTVSPost2010PropOp50
 70
     0
102
RTVSPost2010Prop51ColorIndex
 90
      256
102
RTVSPost2010Prop51ColorRGB
 90
-16777216
102
RTVSPost2010PropOp51
 70
     0
102
RTVSPost2010Prop52
140
1.0
102
RTVSPost2010PropOp52
 70
     0
102
RTVSPost2010Prop53
 90
        2
102
RTVSPost2010PropOp53
 70
     0
102
RTVSPost2010Prop54
  1
strokes_ogs.tif
102
RTVSPost2010PropOp54
 70
     0
102
RTVSPost2010Prop55
280
     0
102
RTVSPost2010PropOp55
 70
     0
102
RTVSPost2010Prop56
140
1.0
102
RTVSPost2010PropOp56
 70
     0
102
RTVSPost2010Prop57
140
1.0
102
RTVSPost2010PropOp57
 70
     0
102
RTVSPropertyOp0
 70
     0
102
RTVSPropertyOp1
 70
     0
102
RTVSPropertyOp2
 70
     0
102
RTVSPropertyOp3
 70
     0
102
RTVSPropertyOp4
 70
     0
102
RTVSPropertyOp5
 70
     0
102
RTVSPropertyOp6
 70
     0
102
RTVSPropertyOp7
 70
     0
102
RTVSPropertyOp8
 70
     0
102
RTVSPropertyOp9
 70
     0
102
RTVSPropertyOp10
 70
     0
102
RTVSPropertyOp11
 70
     0
102
RTVSPropertyOp12
 70
     0
102
RTVSPropertyOp13
 70
     0
102
RTVSPropertyOp14
 70
     2
102
RTVSPropertyOp15
 70
     0
102
RTVSPropertyOp16
 70
     0
102
RTVSPropertyOp17
 70
     0
102
RTVSPropertyOp18
 70
     0
102
RTVSPropertyOp19
 70
     0
102
RTVSPropertyOp20
 70
     0
102
RTVSPropertyOp21
 70
     0
102
RTVSPropertyOp22
 70
     0
102
RTVSPropertyOp23
 70
     0
102
RTVSPropertyOp24
 70
     0
102
RTVSPropertyOp25
 70
     0
102
RTVSPropertyOp26
 70
     0
102
RTVSPropertyOp27
 70
     0
102
RTVSPropertyOp28
 70
     0
102
RTVSPropertyOp29
 70
     0
102
RTVSPropertyOp30
 70
     0
102
RTVSPropertyOp31
 70
     0
102
RTVSPropertyOp32
 70
     0
102
RTVSPropertyOp33
 70
     0
102
RTVSPropertyOp34
 70
     0
102
RTVSPropertyOp35
 70
     0
102
RTVSPropertyOp36
 70
     0
102
RTVSPropertyOp37
 70
     0
102
RTVSPropertyOp38
 70
     0
102
RTVSPropertyOp39
 70
     0
102
RTVSPropertyOp40
 70
     0
102
RTVSPropertyOp41
 70
     0
102
RTVSPropertyOp42
 70
     0
102
RTVSPropertyOp43
 70
     0
102
RTVSPropertyOp44
 70
     0
102
RTVSPropertyOp45
 70
     0
102
RTVSPropertyOp46
 70
     0
102
RTVSPropertyOp47
 70
     0
102
RTVSPropertyOp48
 70
     0
102
RTVSPropertyOp49
 70
     0
102
RTVSPropertyOp50
 70
     0
102
RTVSPropertyOp51
 70
     0
102
RTVSPropertyOp52
 70
     0
102
RTVSPropertyOp53
 70
     0
102
RTVSPropertyOp54
 70
     0
102
RTVSPropertyOp55
 70
     0
102
RTVSPropertyOp56
 70
     0
102
RTVSPropertyOp57
 70
     0
102
RTVSPropertyOp58
 70
     0
102
RTVSPropertyOp59
 70
     0
102
RTVSPropertyOp60
 70
     0
102
RTVSPropertyOp61
 70
     0
102
RTVSPropertyOp62
 70
     0
  0
XRECORD
  5
14E5
102
{ACAD_REACTORS
330
14E4
102
}
330
14E4
100
AcDbXrecord
280
     1
102
RTVSPost2010Prop28
280
     0
102
RTVSPost2010PropOp28
 70
     1
102
RTVSPost2010Prop29
280
     1
102
RTVSPost2010PropOp29
 70
     1
102
RTVSPost2010Prop30
280
     1
102
RTVSPost2010PropOp30
 70
     1
102
RTVSPost2010Prop31
280
     0
102
RTVSPost2010PropOp31
 70
     1
102
RTVSPost2010Prop32
280
     0
102
RTVSPost2010PropOp32
 70
     1
102
RTVSPost2010Prop33
280
     0
102
RTVSPost2010PropOp33
 70
     1
102
RTVSPost2010Prop34
280
     0
102
RTVSPost2010PropOp34
 70
     1
102
RTVSPost2010Prop35
280
     0
102
RTVSPost2010PropOp35
 70
     1
102
RTVSPost2010Prop36
280
     0
102
RTVSPost2010PropOp36
 70
     1
102
RTVSPost2010Prop37
 90
       50
102
RTVSPost2010PropOp37
 70
     1
102
RTVSPost2010Prop38
140
0.0
102
RTVSPost2010PropOp38
 70
     1
102
RTVSPost2010Prop39
140
1.0
102
RTVSPost2010PropOp39
 70
     1
102
RTVSPost2010Prop40
 90
        0
102
RTVSPost2010PropOp40
 70
     1
102
RTVSPost2010Prop41ColorIndex
 90
       18
102
RTVSPost2010Prop41ColorRGB
 90
        0
102
RTVSPost2010PropOp41
 70
     1
102
RTVSPost2010Prop42
 90
       50
102
RTVSPost2010PropOp42
 70
     1
102
RTVSPost2010Prop43
 90
        3
102
RTVSPost2010PropOp43
 70
     1
102
RTVSPost2010Prop44ColorIndex
 90
        5
102
RTVSPost2010Prop44ColorRGB
 90
      255
102
RTVSPost2010PropOp44
 70
     1
102
RTVSPost2010Prop45
280
     0
102
RTVSPost2010PropOp45
 70
     1
102
RTVSPost2010Prop46
 90
       50
102
RTVSPost2010PropOp46
 70
     1
102
RTVSPost2010Prop47
 90
       50
102
RTVSPost2010PropOp47
 70
     1
102
RTVSPost2010Prop48
 90
       50
102
RTVSPost2010PropOp48
 70
     1
102
RTVSPost2010Prop49
280
     0
102
RTVSPost2010PropOp49
 70
     1
102
RTVSPost2010Prop50
 90
       50
102
RTVSPost2010PropOp50
 70
     1
102
RTVSPost2010Prop51ColorIndex
 90
      256
102
RTVSPost2010Prop51ColorRGB
 90
-16777216
102
RTVSPost2010PropOp51
 70
     0
102
RTVSPost2010Prop52
140
1.0
102
RTVSPost2010PropOp52
 70
     0
102
RTVSPost2010Prop53
 90
        2
102
RTVSPost2010PropOp53
 70
     1
102
RTVSPost2010Prop54
  1
strokes_ogs.tif
102
RTVSPost2010PropOp54
 70
     1
102
RTVSPost2010Prop55
280
     0
102
RTVSPost2010PropOp55
 70
     1
102
RTVSPost2010Prop56
140
1.0
102
RTVSPost2010PropOp56
 70
     1
102
RTVSPost2010Prop57
140
1.0
102
RTVSPost2010PropOp57
 70
     1
102
RTVSPropertyOp0
 70
     1
102
RTVSPropertyOp1
 70
     1
102
RTVSPropertyOp2
 70
     1
102
RTVSPropertyOp3
 70
     1
102
RTVSPropertyOp4
 70
     1
102
RTVSPropertyOp5
 70
     1
102
RTVSPropertyOp6
 70
     1
102
RTVSPropertyOp7
 70
     1
102
RTVSPropertyOp8
 70
     1
102
RTVSPropertyOp9
 70
     1
102
RTVSPropertyOp10
 70
     1
102
RTVSPropertyOp11
 70
     1
102
RTVSPropertyOp12
 70
     1
102
RTVSPropertyOp13
 70
     1
102
RTVSPropertyOp14
 70
     1
102
RTVSPropertyOp15
 70
     1
102
RTVSPropertyOp16
 70
     1
102
RTVSPropertyOp17
 70
     1
102
RTVSPropertyOp18
 70
     1
102
RTVSPropertyOp19
 70
     1
102
RTVSPropertyOp20
 70
     1
102
RTVSPropertyOp21
 70
     1
102
RTVSPropertyOp22
 70
     1
102
RTVSPropertyOp23
 70
     1
102
RTVSPropertyOp24
 70
     1
102
RTVSPropertyOp25
 70
     1
102
RTVSPropertyOp26
 70
     1
102
RTVSPropertyOp27
 70
     1
102
RTVSPropertyOp28
 70
     1
102
RTVSPropertyOp29
 70
     1
102
RTVSPropertyOp30
 70
     1
102
RTVSPropertyOp31
 70
     1
102
RTVSPropertyOp32
 70
     1
102
RTVSPropertyOp33
 70
     1
102
RTVSPropertyOp34
 70
     1
102
RTVSPropertyOp35
 70
     1
102
RTVSPropertyOp36
 70
     1
102
RTVSPropertyOp37
 70
     1
102
RTVSPropertyOp38
 70
     1
102
RTVSPropertyOp39
 70
     1
102
RTVSPropertyOp40
 70
     1
102
RTVSPropertyOp41
 70
     1
102
RTVSPropertyOp42
 70
     1
102
RTVSPropertyOp43
 70
     1
102
RTVSPropertyOp44
 70
     1
102
RTVSPropertyOp45
 70
     1
102
RTVSPropertyOp46
 70
     1
102
RTVSPropertyOp47
 70
     1
102
RTVSPropertyOp48
 70
     1
102
RTVSPropertyOp49
 70
     1
102
RTVSPropertyOp50
 70
     1
102
RTVSPropertyOp51
 70
     0
102
RTVSPropertyOp52
 70
     0
102
RTVSPropertyOp53
 70
     1
102
RTVSPropertyOp54
 70
     1
102
RTVSPropertyOp55
 70
     1
102
RTVSPropertyOp56
 70
     1
102
RTVSPropertyOp57
 70
     1
102
RTVSPropertyOp58
 70
     1
102
RTVSPropertyOp59
 70
     1
102
RTVSPropertyOp60
 70
     1
102
RTVSPropertyOp61
 70
     1
102
RTVSPropertyOp62
 70
     1
  0
XRECORD
  5
14C9
102
{ACAD_REACTORS
330
14C8
102
}
330
14C8
100
AcDbXrecord
280
     1
102
RTVSPost2010Prop28
280
     0
102
RTVSPost2010PropOp28
 70
     1
102
RTVSPost2010Prop29
280
     1
102
RTVSPost2010PropOp29
 70
     1
102
RTVSPost2010Prop30
280
     1
102
RTVSPost2010PropOp30
 70
     1
102
RTVSPost2010Prop31
280
     0
102
RTVSPost2010PropOp31
 70
     1
102
RTVSPost2010Prop32
280
     0
102
RTVSPost2010PropOp32
 70
     1
102
RTVSPost2010Prop33
280
     0
102
RTVSPost2010PropOp33
 70
     1
102
RTVSPost2010Prop34
280
     0
102
RTVSPost2010PropOp34
 70
     1
102
RTVSPost2010Prop35
280
     0
102
RTVSPost2010PropOp35
 70
     1
102
RTVSPost2010Prop36
280
     0
102
RTVSPost2010PropOp36
 70
     1
102
RTVSPost2010Prop37
 90
       50
102
RTVSPost2010PropOp37
 70
     1
102
RTVSPost2010Prop38
140
0.0
102
RTVSPost2010PropOp38
 70
     1
102
RTVSPost2010Prop39
140
1.0
102
RTVSPost2010PropOp39
 70
     1
102
RTVSPost2010Prop40
 90
        0
102
RTVSPost2010PropOp40
 70
     1
102
RTVSPost2010Prop41ColorIndex
 90
       18
102
RTVSPost2010Prop41ColorRGB
 90
        0
102
RTVSPost2010PropOp41
 70
     1
102
RTVSPost2010Prop42
 90
       50
102
RTVSPost2010PropOp42
 70
     1
102
RTVSPost2010Prop43
 90
        3
102
RTVSPost2010PropOp43
 70
     1
102
RTVSPost2010Prop44ColorIndex
 90
        5
102
RTVSPost2010Prop44ColorRGB
 90
      255
102
RTVSPost2010PropOp44
 70
     1
102
RTVSPost2010Prop45
280
     0
102
RTVSPost2010PropOp45
 70
     1
102
RTVSPost2010Prop46
 90
       50
102
RTVSPost2010PropOp46
 70
     1
102
RTVSPost2010Prop47
 90
       50
102
RTVSPost2010PropOp47
 70
     1
102
RTVSPost2010Prop48
 90
       50
102
RTVSPost2010PropOp48
 70
     1
102
RTVSPost2010Prop49
280
     0
102
RTVSPost2010PropOp49
 70
     1
102
RTVSPost2010Prop50
 90
       50
102
RTVSPost2010PropOp50
 70
     1
102
RTVSPost2010Prop51ColorIndex
 90
      256
102
RTVSPost2010Prop51ColorRGB
 90
-16777216
102
RTVSPost2010PropOp51
 70
     0
102
RTVSPost2010Prop52
140
1.0
102
RTVSPost2010PropOp52
 70
     0
102
RTVSPost2010Prop53
 90
        2
102
RTVSPost2010PropOp53
 70
     1
102
RTVSPost2010Prop54
  1
strokes_ogs.tif
102
RTVSPost2010PropOp54
 70
     1
102
RTVSPost2010Prop55
280
     0
102
RTVSPost2010PropOp55
 70
     1
102
RTVSPost2010Prop56
140
1.0
102
RTVSPost2010PropOp56
 70
     1
102
RTVSPost2010Prop57
140
1.0
102
RTVSPost2010PropOp57
 70
     1
102
RTVSPropertyOp0
 70
     1
102
RTVSPropertyOp1
 70
     1
102
RTVSPropertyOp2
 70
     1
102
RTVSPropertyOp3
 70
     1
102
RTVSPropertyOp4
 70
     1
102
RTVSPropertyOp5
 70
     1
102
RTVSPropertyOp6
 70
     1
102
RTVSPropertyOp7
 70
     1
102
RTVSPropertyOp8
 70
     1
102
RTVSPropertyOp9
 70
     1
102
RTVSPropertyOp10
 70
     1
102
RTVSPropertyOp11
 70
     1
102
RTVSPropertyOp12
 70
     1
102
RTVSPropertyOp13
 70
     1
102
RTVSPropertyOp14
 70
     1
102
RTVSPropertyOp15
 70
     1
102
RTVSPropertyOp16
 70
     1
102
RTVSPropertyOp17
 70
     1
102
RTVSPropertyOp18
 70
     1
102
RTVSPropertyOp19
 70
     1
102
RTVSPropertyOp20
 70
     1
102
RTVSPropertyOp21
 70
     1
102
RTVSPropertyOp22
 70
     1
102
RTVSPropertyOp23
 70
     1
102
RTVSPropertyOp24
 70
     1
102
RTVSPropertyOp25
 70
     1
102
RTVSPropertyOp26
 70
     1
102
RTVSPropertyOp27
 70
     1
102
RTVSPropertyOp28
 70
     1
102
RTVSPropertyOp29
 70
     1
102
RTVSPropertyOp30
 70
     1
102
RTVSPropertyOp31
 70
     1
102
RTVSPropertyOp32
 70
     1
102
RTVSPropertyOp33
 70
     1
102
RTVSPropertyOp34
 70
     1
102
RTVSPropertyOp35
 70
     1
102
RTVSPropertyOp36
 70
     1
102
RTVSPropertyOp37
 70
     1
102
RTVSPropertyOp38
 70
     1
102
RTVSPropertyOp39
 70
     1
102
RTVSPropertyOp40
 70
     1
102
RTVSPropertyOp41
 70
     1
102
RTVSPropertyOp42
 70
     1
102
RTVSPropertyOp43
 70
     1
102
RTVSPropertyOp44
 70
     1
102
RTVSPropertyOp45
 70
     1
102
RTVSPropertyOp46
 70
     1
102
RTVSPropertyOp47
 70
     1
102
RTVSPropertyOp48
 70
     1
102
RTVSPropertyOp49
 70
     1
102
RTVSPropertyOp50
 70
     1
102
RTVSPropertyOp51
 70
     0
102
RTVSPropertyOp52
 70
     0
102
RTVSPropertyOp53
 70
     1
102
RTVSPropertyOp54
 70
     1
102
RTVSPropertyOp55
 70
     1
102
RTVSPropertyOp56
 70
     1
102
RTVSPropertyOp57
 70
     1
102
RTVSPropertyOp58
 70
     1
102
RTVSPropertyOp59
 70
     1
102
RTVSPropertyOp60
 70
     1
102
RTVSPropertyOp61
 70
     1
102
RTVSPropertyOp62
 70
     1
  0
XRECORD
  5
14CB
102
{ACAD_REACTORS
330
14CA
102
}
330
14CA
100
AcDbXrecord
280
     1
102
RTVSPost2010Prop28
280
     0
102
RTVSPost2010PropOp28
 70
     1
102
RTVSPost2010Prop29
280
     1
102
RTVSPost2010PropOp29
 70
     1
102
RTVSPost2010Prop30
280
     1
102
RTVSPost2010PropOp30
 70
     1
102
RTVSPost2010Prop31
280
     0
102
RTVSPost2010PropOp31
 70
     1
102
RTVSPost2010Prop32
280
     0
102
RTVSPost2010PropOp32
 70
     1
102
RTVSPost2010Prop33
280
     0
102
RTVSPost2010PropOp33
 70
     1
102
RTVSPost2010Prop34
280
     0
102
RTVSPost2010PropOp34
 70
     1
102
RTVSPost2010Prop35
280
     0
102
RTVSPost2010PropOp35
 70
     1
102
RTVSPost2010Prop36
280
     0
102
RTVSPost2010PropOp36
 70
     1
102
RTVSPost2010Prop37
 90
       50
102
RTVSPost2010PropOp37
 70
     1
102
RTVSPost2010Prop38
140
0.0
102
RTVSPost2010PropOp38
 70
     1
102
RTVSPost2010Prop39
140
1.0
102
RTVSPost2010PropOp39
 70
     1
102
RTVSPost2010Prop40
 90
        0
102
RTVSPost2010PropOp40
 70
     1
102
RTVSPost2010Prop41ColorIndex
 90
       18
102
RTVSPost2010Prop41ColorRGB
 90
        0
102
RTVSPost2010PropOp41
 70
     1
102
RTVSPost2010Prop42
 90
       50
102
RTVSPost2010PropOp42
 70
     1
102
RTVSPost2010Prop43
 90
        3
102
RTVSPost2010PropOp43
 70
     1
102
RTVSPost2010Prop44ColorIndex
 90
        5
102
RTVSPost2010Prop44ColorRGB
 90
      255
102
RTVSPost2010PropOp44
 70
     1
102
RTVSPost2010Prop45
280
     0
102
RTVSPost2010PropOp45
 70
     1
102
RTVSPost2010Prop46
 90
       50
102
RTVSPost2010PropOp46
 70
     1
102
RTVSPost2010Prop47
 90
       50
102
RTVSPost2010PropOp47
 70
     1
102
RTVSPost2010Prop48
 90
       50
102
RTVSPost2010PropOp48
 70
     1
102
RTVSPost2010Prop49
280
     0
102
RTVSPost2010PropOp49
 70
     1
102
RTVSPost2010Prop50
 90
       50
102
RTVSPost2010PropOp50
 70
     1
102
RTVSPost2010Prop51ColorIndex
 90
      256
102
RTVSPost2010Prop51ColorRGB
 90
-16777216
102
RTVSPost2010PropOp51
 70
     0
102
RTVSPost2010Prop52
140
1.0
102
RTVSPost2010PropOp52
 70
     0
102
RTVSPost2010Prop53
 90
        2
102
RTVSPost2010PropOp53
 70
     1
102
RTVSPost2010Prop54
  1
strokes_ogs.tif
102
RTVSPost2010PropOp54
 70
     1
102
RTVSPost2010Prop55
280
     0
102
RTVSPost2010PropOp55
 70
     1
102
RTVSPost2010Prop56
140
1.0
102
RTVSPost2010PropOp56
 70
     1
102
RTVSPost2010Prop57
140
1.0
102
RTVSPost2010PropOp57
 70
     1
102
RTVSPropertyOp0
 70
     1
102
RTVSPropertyOp1
 70
     1
102
RTVSPropertyOp2
 70
     1
102
RTVSPropertyOp3
 70
     1
102
RTVSPropertyOp4
 70
     1
102
RTVSPropertyOp5
 70
     1
102
RTVSPropertyOp6
 70
     1
102
RTVSPropertyOp7
 70
     1
102
RTVSPropertyOp8
 70
     1
102
RTVSPropertyOp9
 70
     1
102
RTVSPropertyOp10
 70
     1
102
RTVSPropertyOp11
 70
     1
102
RTVSPropertyOp12
 70
     1
102
RTVSPropertyOp13
 70
     1
102
RTVSPropertyOp14
 70
     1
102
RTVSPropertyOp15
 70
     1
102
RTVSPropertyOp16
 70
     1
102
RTVSPropertyOp17
 70
     1
102
RTVSPropertyOp18
 70
     1
102
RTVSPropertyOp19
 70
     1
102
RTVSPropertyOp20
 70
     1
102
RTVSPropertyOp21
 70
     1
102
RTVSPropertyOp22
 70
     1
102
RTVSPropertyOp23
 70
     1
102
RTVSPropertyOp24
 70
     1
102
RTVSPropertyOp25
 70
     1
102
RTVSPropertyOp26
 70
     1
102
RTVSPropertyOp27
 70
     1
102
RTVSPropertyOp28
 70
     1
102
RTVSPropertyOp29
 70
     1
102
RTVSPropertyOp30
 70
     1
102
RTVSPropertyOp31
 70
     1
102
RTVSPropertyOp32
 70
     1
102
RTVSPropertyOp33
 70
     1
102
RTVSPropertyOp34
 70
     1
102
RTVSPropertyOp35
 70
     1
102
RTVSPropertyOp36
 70
     1
102
RTVSPropertyOp37
 70
     1
102
RTVSPropertyOp38
 70
     1
102
RTVSPropertyOp39
 70
     1
102
RTVSPropertyOp40
 70
     1
102
RTVSPropertyOp41
 70
     1
102
RTVSPropertyOp42
 70
     1
102
RTVSPropertyOp43
 70
     1
102
RTVSPropertyOp44
 70
     1
102
RTVSPropertyOp45
 70
     1
102
RTVSPropertyOp46
 70
     1
102
RTVSPropertyOp47
 70
     1
102
RTVSPropertyOp48
 70
     1
102
RTVSPropertyOp49
 70
     1
102
RTVSPropertyOp50
 70
     1
102
RTVSPropertyOp51
 70
     0
102
RTVSPropertyOp52
 70
     0
102
RTVSPropertyOp53
 70
     1
102
RTVSPropertyOp54
 70
     1
102
RTVSPropertyOp55
 70
     1
102
RTVSPropertyOp56
 70
     1
102
RTVSPropertyOp57
 70
     1
102
RTVSPropertyOp58
 70
     1
102
RTVSPropertyOp59
 70
     1
102
RTVSPropertyOp60
 70
     1
102
RTVSPropertyOp61
 70
     1
102
RTVSPropertyOp62
 70
     1
  0
XRECORD
  5
14CD
102
{ACAD_REACTORS
330
14CC
102
}
330
14CC
100
AcDbXrecord
280
     1
102
RTVSPost2010Prop28
280
     0
102
RTVSPost2010PropOp28
 70
     1
102
RTVSPost2010Prop29
280
     1
102
RTVSPost2010PropOp29
 70
     1
102
RTVSPost2010Prop30
280
     1
102
RTVSPost2010PropOp30
 70
     1
102
RTVSPost2010Prop31
280
     0
102
RTVSPost2010PropOp31
 70
     1
102
RTVSPost2010Prop32
280
     0
102
RTVSPost2010PropOp32
 70
     1
102
RTVSPost2010Prop33
280
     0
102
RTVSPost2010PropOp33
 70
     1
102
RTVSPost2010Prop34
280
     0
102
RTVSPost2010PropOp34
 70
     1
102
RTVSPost2010Prop35
280
     0
102
RTVSPost2010PropOp35
 70
     1
102
RTVSPost2010Prop36
280
     0
102
RTVSPost2010PropOp36
 70
     1
102
RTVSPost2010Prop37
 90
       50
102
RTVSPost2010PropOp37
 70
     1
102
RTVSPost2010Prop38
140
0.0
102
RTVSPost2010PropOp38
 70
     1
102
RTVSPost2010Prop39
140
1.0
102
RTVSPost2010PropOp39
 70
     1
102
RTVSPost2010Prop40
 90
        0
102
RTVSPost2010PropOp40
 70
     1
102
RTVSPost2010Prop41ColorIndex
 90
       18
102
RTVSPost2010Prop41ColorRGB
 90
        0
102
RTVSPost2010PropOp41
 70
     1
102
RTVSPost2010Prop42
 90
       50
102
RTVSPost2010PropOp42
 70
     1
102
RTVSPost2010Prop43
 90
        3
102
RTVSPost2010PropOp43
 70
     1
102
RTVSPost2010Prop44ColorIndex
 90
        5
102
RTVSPost2010Prop44ColorRGB
 90
      255
102
RTVSPost2010PropOp44
 70
     1
102
RTVSPost2010Prop45
280
     0
102
RTVSPost2010PropOp45
 70
     1
102
RTVSPost2010Prop46
 90
       50
102
RTVSPost2010PropOp46
 70
     1
102
RTVSPost2010Prop47
 90
       50
102
RTVSPost2010PropOp47
 70
     1
102
RTVSPost2010Prop48
 90
       50
102
RTVSPost2010PropOp48
 70
     1
102
RTVSPost2010Prop49
280
     0
102
RTVSPost2010PropOp49
 70
     1
102
RTVSPost2010Prop50
 90
       50
102
RTVSPost2010PropOp50
 70
     1
102
RTVSPost2010Prop51ColorIndex
 90
      256
102
RTVSPost2010Prop51ColorRGB
 90
-16777216
102
RTVSPost2010PropOp51
 70
     0
102
RTVSPost2010Prop52
140
1.0
102
RTVSPost2010PropOp52
 70
     0
102
RTVSPost2010Prop53
 90
        2
102
RTVSPost2010PropOp53
 70
     1
102
RTVSPost2010Prop54
  1
strokes_ogs.tif
102
RTVSPost2010PropOp54
 70
     1
102
RTVSPost2010Prop55
280
     0
102
RTVSPost2010PropOp55
 70
     1
102
RTVSPost2010Prop56
140
1.0
102
RTVSPost2010PropOp56
 70
     1
102
RTVSPost2010Prop57
140
1.0
102
RTVSPost2010PropOp57
 70
     1
102
RTVSPropertyOp0
 70
     1
102
RTVSPropertyOp1
 70
     1
102
RTVSPropertyOp2
 70
     1
102
RTVSPropertyOp3
 70
     1
102
RTVSPropertyOp4
 70
     1
102
RTVSPropertyOp5
 70
     1
102
RTVSPropertyOp6
 70
     1
102
RTVSPropertyOp7
 70
     1
102
RTVSPropertyOp8
 70
     1
102
RTVSPropertyOp9
 70
     1
102
RTVSPropertyOp10
 70
     1
102
RTVSPropertyOp11
 70
     1
102
RTVSPropertyOp12
 70
     1
102
RTVSPropertyOp13
 70
     1
102
RTVSPropertyOp14
 70
     1
102
RTVSPropertyOp15
 70
     1
102
RTVSPropertyOp16
 70
     1
102
RTVSPropertyOp17
 70
     1
102
RTVSPropertyOp18
 70
     1
102
RTVSPropertyOp19
 70
     1
102
RTVSPropertyOp20
 70
     1
102
RTVSPropertyOp21
 70
     1
102
RTVSPropertyOp22
 70
     1
102
RTVSPropertyOp23
 70
     1
102
RTVSPropertyOp24
 70
     1
102
RTVSPropertyOp25
 70
     1
102
RTVSPropertyOp26
 70
     1
102
RTVSPropertyOp27
 70
     1
102
RTVSPropertyOp28
 70
     1
102
RTVSPropertyOp29
 70
     1
102
RTVSPropertyOp30
 70
     1
102
RTVSPropertyOp31
 70
     1
102
RTVSPropertyOp32
 70
     1
102
RTVSPropertyOp33
 70
     1
102
RTVSPropertyOp34
 70
     1
102
RTVSPropertyOp35
 70
     1
102
RTVSPropertyOp36
 70
     1
102
RTVSPropertyOp37
 70
     1
102
RTVSPropertyOp38
 70
     1
102
RTVSPropertyOp39
 70
     1
102
RTVSPropertyOp40
 70
     1
102
RTVSPropertyOp41
 70
     1
102
RTVSPropertyOp42
 70
     1
102
RTVSPropertyOp43
 70
     1
102
RTVSPropertyOp44
 70
     1
102
RTVSPropertyOp45
 70
     1
102
RTVSPropertyOp46
 70
     1
102
RTVSPropertyOp47
 70
     1
102
RTVSPropertyOp48
 70
     1
102
RTVSPropertyOp49
 70
     1
102
RTVSPropertyOp50
 70
     1
102
RTVSPropertyOp51
 70
     0
102
RTVSPropertyOp52
 70
     0
102
RTVSPropertyOp53
 70
     1
102
RTVSPropertyOp54
 70
     1
102
RTVSPropertyOp55
 70
     1
102
RTVSPropertyOp56
 70
     1
102
RTVSPropertyOp57
 70
     1
102
RTVSPropertyOp58
 70
     1
102
RTVSPropertyOp59
 70
     1
102
RTVSPropertyOp60
 70
     1
102
RTVSPropertyOp61
 70
     1
102
RTVSPropertyOp62
 70
     1
  0
XRECORD
  5
14CF
102
{ACAD_REACTORS
330
14CE
102
}
330
14CE
100
AcDbXrecord
280
     1
102
RTVSPost2010Prop28
280
     0
102
RTVSPost2010PropOp28
 70
     1
102
RTVSPost2010Prop29
280
     1
102
RTVSPost2010PropOp29
 70
     1
102
RTVSPost2010Prop30
280
     1
102
RTVSPost2010PropOp30
 70
     1
102
RTVSPost2010Prop31
280
     0
102
RTVSPost2010PropOp31
 70
     1
102
RTVSPost2010Prop32
280
     0
102
RTVSPost2010PropOp32
 70
     1
102
RTVSPost2010Prop33
280
     0
102
RTVSPost2010PropOp33
 70
     1
102
RTVSPost2010Prop34
280
     0
102
RTVSPost2010PropOp34
 70
     1
102
RTVSPost2010Prop35
280
     0
102
RTVSPost2010PropOp35
 70
     1
102
RTVSPost2010Prop36
280
     0
102
RTVSPost2010PropOp36
 70
     1
102
RTVSPost2010Prop37
 90
       50
102
RTVSPost2010PropOp37
 70
     1
102
RTVSPost2010Prop38
140
0.0
102
RTVSPost2010PropOp38
 70
     1
102
RTVSPost2010Prop39
140
1.0
102
RTVSPost2010PropOp39
 70
     1
102
RTVSPost2010Prop40
 90
        0
102
RTVSPost2010PropOp40
 70
     1
102
RTVSPost2010Prop41ColorIndex
 90
       18
102
RTVSPost2010Prop41ColorRGB
 90
        0
102
RTVSPost2010PropOp41
 70
     1
102
RTVSPost2010Prop42
 90
       50
102
RTVSPost2010PropOp42
 70
     1
102
RTVSPost2010Prop43
 90
        3
102
RTVSPost2010PropOp43
 70
     1
102
RTVSPost2010Prop44ColorIndex
 90
        5
102
RTVSPost2010Prop44ColorRGB
 90
      255
102
RTVSPost2010PropOp44
 70
     1
102
RTVSPost2010Prop45
280
     0
102
RTVSPost2010PropOp45
 70
     1
102
RTVSPost2010Prop46
 90
       50
102
RTVSPost2010PropOp46
 70
     1
102
RTVSPost2010Prop47
 90
       50
102
RTVSPost2010PropOp47
 70
     1
102
RTVSPost2010Prop48
 90
       50
102
RTVSPost2010PropOp48
 70
     1
102
RTVSPost2010Prop49
280
     0
102
RTVSPost2010PropOp49
 70
     1
102
RTVSPost2010Prop50
 90
       50
102
RTVSPost2010PropOp50
 70
     1
102
RTVSPost2010Prop51ColorIndex
 90
      256
102
RTVSPost2010Prop51ColorRGB
 90
-16777216
102
RTVSPost2010PropOp51
 70
     0
102
RTVSPost2010Prop52
140
1.0
102
RTVSPost2010PropOp52
 70
     0
102
RTVSPost2010Prop53
 90
        2
102
RTVSPost2010PropOp53
 70
     1
102
RTVSPost2010Prop54
  1
strokes_ogs.tif
102
RTVSPost2010PropOp54
 70
     1
102
RTVSPost2010Prop55
280
     0
102
RTVSPost2010PropOp55
 70
     1
102
RTVSPost2010Prop56
140
1.0
102
RTVSPost2010PropOp56
 70
     1
102
RTVSPost2010Prop57
140
1.0
102
RTVSPost2010PropOp57
 70
     1
102
RTVSPropertyOp0
 70
     1
102
RTVSPropertyOp1
 70
     1
102
RTVSPropertyOp2
 70
     1
102
RTVSPropertyOp3
 70
     1
102
RTVSPropertyOp4
 70
     1
102
RTVSPropertyOp5
 70
     1
102
RTVSPropertyOp6
 70
     1
102
RTVSPropertyOp7
 70
     1
102
RTVSPropertyOp8
 70
     1
102
RTVSPropertyOp9
 70
     1
102
RTVSPropertyOp10
 70
     1
102
RTVSPropertyOp11
 70
     1
102
RTVSPropertyOp12
 70
     1
102
RTVSPropertyOp13
 70
     1
102
RTVSPropertyOp14
 70
     1
102
RTVSPropertyOp15
 70
     1
102
RTVSPropertyOp16
 70
     1
102
RTVSPropertyOp17
 70
     1
102
RTVSPropertyOp18
 70
     1
102
RTVSPropertyOp19
 70
     1
102
RTVSPropertyOp20
 70
     1
102
RTVSPropertyOp21
 70
     1
102
RTVSPropertyOp22
 70
     1
102
RTVSPropertyOp23
 70
     1
102
RTVSPropertyOp24
 70
     1
102
RTVSPropertyOp25
 70
     1
102
RTVSPropertyOp26
 70
     1
102
RTVSPropertyOp27
 70
     1
102
RTVSPropertyOp28
 70
     1
102
RTVSPropertyOp29
 70
     1
102
RTVSPropertyOp30
 70
     1
102
RTVSPropertyOp31
 70
     1
102
RTVSPropertyOp32
 70
     1
102
RTVSPropertyOp33
 70
     1
102
RTVSPropertyOp34
 70
     1
102
RTVSPropertyOp35
 70
     1
102
RTVSPropertyOp36
 70
     1
102
RTVSPropertyOp37
 70
     1
102
RTVSPropertyOp38
 70
     1
102
RTVSPropertyOp39
 70
     1
102
RTVSPropertyOp40
 70
     1
102
RTVSPropertyOp41
 70
     1
102
RTVSPropertyOp42
 70
     1
102
RTVSPropertyOp43
 70
     1
102
RTVSPropertyOp44
 70
     1
102
RTVSPropertyOp45
 70
     1
102
RTVSPropertyOp46
 70
     1
102
RTVSPropertyOp47
 70
     1
102
RTVSPropertyOp48
 70
     1
102
RTVSPropertyOp49
 70
     1
102
RTVSPropertyOp50
 70
     1
102
RTVSPropertyOp51
 70
     0
102
RTVSPropertyOp52
 70
     0
102
RTVSPropertyOp53
 70
     1
102
RTVSPropertyOp54
 70
     1
102
RTVSPropertyOp55
 70
     1
102
RTVSPropertyOp56
 70
     1
102
RTVSPropertyOp57
 70
     1
102
RTVSPropertyOp58
 70
     1
102
RTVSPropertyOp59
 70
     1
102
RTVSPropertyOp60
 70
     1
102
RTVSPropertyOp61
 70
     1
102
RTVSPropertyOp62
 70
     1
  0
XRECORD
  5
14D7
102
{ACAD_REACTORS
330
14D6
102
}
330
14D6
100
AcDbXrecord
280
     1
102
RTVSPost2010Prop28
280
     0
102
RTVSPost2010PropOp28
 70
     1
102
RTVSPost2010Prop29
280
     1
102
RTVSPost2010PropOp29
 70
     1
102
RTVSPost2010Prop30
280
     1
102
RTVSPost2010PropOp30
 70
     1
102
RTVSPost2010Prop31
280
     0
102
RTVSPost2010PropOp31
 70
     1
102
RTVSPost2010Prop32
280
     0
102
RTVSPost2010PropOp32
 70
     1
102
RTVSPost2010Prop33
280
     0
102
RTVSPost2010PropOp33
 70
     1
102
RTVSPost2010Prop34
280
     0
102
RTVSPost2010PropOp34
 70
     1
102
RTVSPost2010Prop35
280
     0
102
RTVSPost2010PropOp35
 70
     1
102
RTVSPost2010Prop36
280
     0
102
RTVSPost2010PropOp36
 70
     1
102
RTVSPost2010Prop37
 90
       50
102
RTVSPost2010PropOp37
 70
     1
102
RTVSPost2010Prop38
140
0.0
102
RTVSPost2010PropOp38
 70
     1
102
RTVSPost2010Prop39
140
1.0
102
RTVSPost2010PropOp39
 70
     1
102
RTVSPost2010Prop40
 90
        0
102
RTVSPost2010PropOp40
 70
     1
102
RTVSPost2010Prop41ColorIndex
 90
       18
102
RTVSPost2010Prop41ColorRGB
 90
        0
102
RTVSPost2010PropOp41
 70
     1
102
RTVSPost2010Prop42
 90
       50
102
RTVSPost2010PropOp42
 70
     1
102
RTVSPost2010Prop43
 90
        3
102
RTVSPost2010PropOp43
 70
     1
102
RTVSPost2010Prop44ColorIndex
 90
        5
102
RTVSPost2010Prop44ColorRGB
 90
      255
102
RTVSPost2010PropOp44
 70
     1
102
RTVSPost2010Prop45
280
     0
102
RTVSPost2010PropOp45
 70
     1
102
RTVSPost2010Prop46
 90
       50
102
RTVSPost2010PropOp46
 70
     1
102
RTVSPost2010Prop47
 90
       50
102
RTVSPost2010PropOp47
 70
     1
102
RTVSPost2010Prop48
 90
       50
102
RTVSPost2010PropOp48
 70
     1
102
RTVSPost2010Prop49
280
     0
102
RTVSPost2010PropOp49
 70
     1
102
RTVSPost2010Prop50
 90
       50
102
RTVSPost2010PropOp50
 70
     1
102
RTVSPost2010Prop51ColorIndex
 90
      256
102
RTVSPost2010Prop51ColorRGB
 90
-16777216
102
RTVSPost2010PropOp51
 70
     0
102
RTVSPost2010Prop52
140
1.0
102
RTVSPost2010PropOp52
 70
     0
102
RTVSPost2010Prop53
 90
        2
102
RTVSPost2010PropOp53
 70
     1
102
RTVSPost2010Prop54
  1
strokes_ogs.tif
102
RTVSPost2010PropOp54
 70
     1
102
RTVSPost2010Prop55
280
     0
102
RTVSPost2010PropOp55
 70
     1
102
RTVSPost2010Prop56
140
1.0
102
RTVSPost2010PropOp56
 70
     1
102
RTVSPost2010Prop57
140
1.0
102
RTVSPost2010PropOp57
 70
     1
102
RTVSPropertyOp0
 70
     1
102
RTVSPropertyOp1
 70
     1
102
RTVSPropertyOp2
 70
     1
102
RTVSPropertyOp3
 70
     1
102
RTVSPropertyOp4
 70
     1
102
RTVSPropertyOp5
 70
     1
102
RTVSPropertyOp6
 70
     1
102
RTVSPropertyOp7
 70
     1
102
RTVSPropertyOp8
 70
     1
102
RTVSPropertyOp9
 70
     1
102
RTVSPropertyOp10
 70
     1
102
RTVSPropertyOp11
 70
     1
102
RTVSPropertyOp12
 70
     1
102
RTVSPropertyOp13
 70
     1
102
RTVSPropertyOp14
 70
     1
102
RTVSPropertyOp15
 70
     1
102
RTVSPropertyOp16
 70
     1
102
RTVSPropertyOp17
 70
     1
102
RTVSPropertyOp18
 70
     1
102
RTVSPropertyOp19
 70
     1
102
RTVSPropertyOp20
 70
     1
102
RTVSPropertyOp21
 70
     1
102
RTVSPropertyOp22
 70
     1
102
RTVSPropertyOp23
 70
     1
102
RTVSPropertyOp24
 70
     1
102
RTVSPropertyOp25
 70
     1
102
RTVSPropertyOp26
 70
     1
102
RTVSPropertyOp27
 70
     1
102
RTVSPropertyOp28
 70
     1
102
RTVSPropertyOp29
 70
     1
102
RTVSPropertyOp30
 70
     1
102
RTVSPropertyOp31
 70
     1
102
RTVSPropertyOp32
 70
     1
102
RTVSPropertyOp33
 70
     1
102
RTVSPropertyOp34
 70
     1
102
RTVSPropertyOp35
 70
     1
102
RTVSPropertyOp36
 70
     1
102
RTVSPropertyOp37
 70
     1
102
RTVSPropertyOp38
 70
     1
102
RTVSPropertyOp39
 70
     1
102
RTVSPropertyOp40
 70
     1
102
RTVSPropertyOp41
 70
     1
102
RTVSPropertyOp42
 70
     1
102
RTVSPropertyOp43
 70
     1
102
RTVSPropertyOp44
 70
     1
102
RTVSPropertyOp45
 70
     1
102
RTVSPropertyOp46
 70
     1
102
RTVSPropertyOp47
 70
     1
102
RTVSPropertyOp48
 70
     1
102
RTVSPropertyOp49
 70
     1
102
RTVSPropertyOp50
 70
     1
102
RTVSPropertyOp51
 70
     0
102
RTVSPropertyOp52
 70
     0
102
RTVSPropertyOp53
 70
     1
102
RTVSPropertyOp54
 70
     1
102
RTVSPropertyOp55
 70
     1
102
RTVSPropertyOp56
 70
     1
102
RTVSPropertyOp57
 70
     1
102
RTVSPropertyOp58
 70
     1
102
RTVSPropertyOp59
 70
     1
102
RTVSPropertyOp60
 70
     1
102
RTVSPropertyOp61
 70
     1
102
RTVSPropertyOp62
 70
     1
  0
XRECORD
  5
14F3
102
{ACAD_REACTORS
330
14F2
102
}
330
14F2
100
AcDbXrecord
280
     1
102
RTVSPost2010Prop28
280
     0
102
RTVSPost2010PropOp28
 70
     0
102
RTVSPost2010Prop29
280
     1
102
RTVSPost2010PropOp29
 70
     0
102
RTVSPost2010Prop30
280
     1
102
RTVSPost2010PropOp30
 70
     0
102
RTVSPost2010Prop31
280
     0
102
RTVSPost2010PropOp31
 70
     0
102
RTVSPost2010Prop32
280
     0
102
RTVSPost2010PropOp32
 70
     0
102
RTVSPost2010Prop33
280
     0
102
RTVSPost2010PropOp33
 70
     0
102
RTVSPost2010Prop34
280
     0
102
RTVSPost2010PropOp34
 70
     0
102
RTVSPost2010Prop35
280
     0
102
RTVSPost2010PropOp35
 70
     0
102
RTVSPost2010Prop36
280
     0
102
RTVSPost2010PropOp36
 70
     0
102
RTVSPost2010Prop37
 90
       50
102
RTVSPost2010PropOp37
 70
     0
102
RTVSPost2010Prop38
140
0.0
102
RTVSPost2010PropOp38
 70
     0
102
RTVSPost2010Prop39
140
1.0
102
RTVSPost2010PropOp39
 70
     0
102
RTVSPost2010Prop40
 90
        0
102
RTVSPost2010PropOp40
 70
     0
102
RTVSPost2010Prop41ColorIndex
 90
       18
102
RTVSPost2010Prop41ColorRGB
 90
        0
102
RTVSPost2010PropOp41
 70
     0
102
RTVSPost2010Prop42
 90
       50
102
RTVSPost2010PropOp42
 70
     0
102
RTVSPost2010Prop43
 90
        3
102
RTVSPost2010PropOp43
 70
     0
102
RTVSPost2010Prop44ColorIndex
 90
        5
102
RTVSPost2010Prop44ColorRGB
 90
      255
102
RTVSPost2010PropOp44
 70
     0
102
RTVSPost2010Prop45
280
     0
102
RTVSPost2010PropOp45
 70
     0
102
RTVSPost2010Prop46
 90
       50
102
RTVSPost2010PropOp46
 70
     0
102
RTVSPost2010Prop47
 90
       50
102
RTVSPost2010PropOp47
 70
     0
102
RTVSPost2010Prop48
 90
       50
102
RTVSPost2010PropOp48
 70
     0
102
RTVSPost2010Prop49
280
     0
102
RTVSPost2010PropOp49
 70
     0
102
RTVSPost2010Prop50
 90
       50
102
RTVSPost2010PropOp50
 70
     0
102
RTVSPost2010Prop51ColorIndex
 90
      256
102
RTVSPost2010Prop51ColorRGB
 90
-16777216
102
RTVSPost2010PropOp51
 70
     0
102
RTVSPost2010Prop52
140
1.0
102
RTVSPost2010PropOp52
 70
     0
102
RTVSPost2010Prop53
 90
        2
102
RTVSPost2010PropOp53
 70
     0
102
RTVSPost2010Prop54
  1
strokes_ogs.tif
102
RTVSPost2010PropOp54
 70
     0
102
RTVSPost2010Prop55
280
     0
102
RTVSPost2010PropOp55
 70
     0
102
RTVSPost2010Prop56
140
1.0
102
RTVSPost2010PropOp56
 70
     0
102
RTVSPost2010Prop57
140
1.0
102
RTVSPost2010PropOp57
 70
     0
102
RTVSPropertyOp0
 70
     0
102
RTVSPropertyOp1
 70
     0
102
RTVSPropertyOp2
 70
     0
102
RTVSPropertyOp3
 70
     0
102
RTVSPropertyOp4
 70
     0
102
RTVSPropertyOp5
 70
     0
102
RTVSPropertyOp6
 70
     0
102
RTVSPropertyOp7
 70
     0
102
RTVSPropertyOp8
 70
     0
102
RTVSPropertyOp9
 70
     0
102
RTVSPropertyOp10
 70
     0
102
RTVSPropertyOp11
 70
     0
102
RTVSPropertyOp12
 70
     0
102
RTVSPropertyOp13
 70
     0
102
RTVSPropertyOp14
 70
     2
102
RTVSPropertyOp15
 70
     0
102
RTVSPropertyOp16
 70
     0
102
RTVSPropertyOp17
 70
     0
102
RTVSPropertyOp18
 70
     0
102
RTVSPropertyOp19
 70
     0
102
RTVSPropertyOp20
 70
     0
102
RTVSPropertyOp21
 70
     0
102
RTVSPropertyOp22
 70
     0
102
RTVSPropertyOp23
 70
     0
102
RTVSPropertyOp24
 70
     0
102
RTVSPropertyOp25
 70
     0
102
RTVSPropertyOp26
 70
     0
102
RTVSPropertyOp27
 70
     0
102
RTVSPropertyOp28
 70
     0
102
RTVSPropertyOp29
 70
     0
102
RTVSPropertyOp30
 70
     0
102
RTVSPropertyOp31
 70
     0
102
RTVSPropertyOp32
 70
     0
102
RTVSPropertyOp33
 70
     0
102
RTVSPropertyOp34
 70
     0
102
RTVSPropertyOp35
 70
     0
102
RTVSPropertyOp36
 70
     0
102
RTVSPropertyOp37
 70
     0
102
RTVSPropertyOp38
 70
     0
102
RTVSPropertyOp39
 70
     0
102
RTVSPropertyOp40
 70
     0
102
RTVSPropertyOp41
 70
     0
102
RTVSPropertyOp42
 70
     0
102
RTVSPropertyOp43
 70
     0
102
RTVSPropertyOp44
 70
     0
102
RTVSPropertyOp45
 70
     0
102
RTVSPropertyOp46
 70
     0
102
RTVSPropertyOp47
 70
     0
102
RTVSPropertyOp48
 70
     0
102
RTVSPropertyOp49
 70
     0
102
RTVSPropertyOp50
 70
     0
102
RTVSPropertyOp51
 70
     0
102
RTVSPropertyOp52
 70
     0
102
RTVSPropertyOp53
 70
     0
102
RTVSPropertyOp54
 70
     0
102
RTVSPropertyOp55
 70
     0
102
RTVSPropertyOp56
 70
     0
102
RTVSPropertyOp57
 70
     0
102
RTVSPropertyOp58
 70
     0
102
RTVSPropertyOp59
 70
     0
102
RTVSPropertyOp60
 70
     0
102
RTVSPropertyOp61
 70
     0
102
RTVSPropertyOp62
 70
     0
  0
XRECORD
  5
14E3
102
{ACAD_REACTORS
330
14E2
102
}
330
14E2
100
AcDbXrecord
280
     1
102
RTVSPost2010Prop28
280
     0
102
RTVSPost2010PropOp28
 70
     1
102
RTVSPost2010Prop29
280
     1
102
RTVSPost2010PropOp29
 70
     1
102
RTVSPost2010Prop30
280
     1
102
RTVSPost2010PropOp30
 70
     1
102
RTVSPost2010Prop31
280
     0
102
RTVSPost2010PropOp31
 70
     1
102
RTVSPost2010Prop32
280
     0
102
RTVSPost2010PropOp32
 70
     1
102
RTVSPost2010Prop33
280
     0
102
RTVSPost2010PropOp33
 70
     1
102
RTVSPost2010Prop34
280
     0
102
RTVSPost2010PropOp34
 70
     1
102
RTVSPost2010Prop35
280
     0
102
RTVSPost2010PropOp35
 70
     1
102
RTVSPost2010Prop36
280
     0
102
RTVSPost2010PropOp36
 70
     1
102
RTVSPost2010Prop37
 90
       50
102
RTVSPost2010PropOp37
 70
     1
102
RTVSPost2010Prop38
140
0.0
102
RTVSPost2010PropOp38
 70
     1
102
RTVSPost2010Prop39
140
1.0
102
RTVSPost2010PropOp39
 70
     1
102
RTVSPost2010Prop40
 90
        0
102
RTVSPost2010PropOp40
 70
     1
102
RTVSPost2010Prop41ColorIndex
 90
       18
102
RTVSPost2010Prop41ColorRGB
 90
        0
102
RTVSPost2010PropOp41
 70
     1
102
RTVSPost2010Prop42
 90
       50
102
RTVSPost2010PropOp42
 70
     1
102
RTVSPost2010Prop43
 90
        3
102
RTVSPost2010PropOp43
 70
     1
102
RTVSPost2010Prop44ColorIndex
 90
        5
102
RTVSPost2010Prop44ColorRGB
 90
      255
102
RTVSPost2010PropOp44
 70
     1
102
RTVSPost2010Prop45
280
     0
102
RTVSPost2010PropOp45
 70
     1
102
RTVSPost2010Prop46
 90
       50
102
RTVSPost2010PropOp46
 70
     1
102
RTVSPost2010Prop47
 90
       50
102
RTVSPost2010PropOp47
 70
     1
102
RTVSPost2010Prop48
 90
       50
102
RTVSPost2010PropOp48
 70
     1
102
RTVSPost2010Prop49
280
     0
102
RTVSPost2010PropOp49
 70
     1
102
RTVSPost2010Prop50
 90
       50
102
RTVSPost2010PropOp50
 70
     1
102
RTVSPost2010Prop51ColorIndex
 90
      256
102
RTVSPost2010Prop51ColorRGB
 90
-16777216
102
RTVSPost2010PropOp51
 70
     0
102
RTVSPost2010Prop52
140
1.0
102
RTVSPost2010PropOp52
 70
     0
102
RTVSPost2010Prop53
 90
        2
102
RTVSPost2010PropOp53
 70
     1
102
RTVSPost2010Prop54
  1
strokes_ogs.tif
102
RTVSPost2010PropOp54
 70
     1
102
RTVSPost2010Prop55
280
     0
102
RTVSPost2010PropOp55
 70
     1
102
RTVSPost2010Prop56
140
1.0
102
RTVSPost2010PropOp56
 70
     1
102
RTVSPost2010Prop57
140
1.0
102
RTVSPost2010PropOp57
 70
     1
102
RTVSPropertyOp0
 70
     1
102
RTVSPropertyOp1
 70
     1
102
RTVSPropertyOp2
 70
     1
102
RTVSPropertyOp3
 70
     1
102
RTVSPropertyOp4
 70
     1
102
RTVSPropertyOp5
 70
     1
102
RTVSPropertyOp6
 70
     1
102
RTVSPropertyOp7
 70
     1
102
RTVSPropertyOp8
 70
     1
102
RTVSPropertyOp9
 70
     1
102
RTVSPropertyOp10
 70
     1
102
RTVSPropertyOp11
 70
     1
102
RTVSPropertyOp12
 70
     1
102
RTVSPropertyOp13
 70
     1
102
RTVSPropertyOp14
 70
     1
102
RTVSPropertyOp15
 70
     1
102
RTVSPropertyOp16
 70
     1
102
RTVSPropertyOp17
 70
     1
102
RTVSPropertyOp18
 70
     1
102
RTVSPropertyOp19
 70
     1
102
RTVSPropertyOp20
 70
     1
102
RTVSPropertyOp21
 70
     1
102
RTVSPropertyOp22
 70
     1
102
RTVSPropertyOp23
 70
     1
102
RTVSPropertyOp24
 70
     1
102
RTVSPropertyOp25
 70
     1
102
RTVSPropertyOp26
 70
     1
102
RTVSPropertyOp27
 70
     1
102
RTVSPropertyOp28
 70
     1
102
RTVSPropertyOp29
 70
     1
102
RTVSPropertyOp30
 70
     1
102
RTVSPropertyOp31
 70
     1
102
RTVSPropertyOp32
 70
     1
102
RTVSPropertyOp33
 70
     1
102
RTVSPropertyOp34
 70
     1
102
RTVSPropertyOp35
 70
     1
102
RTVSPropertyOp36
 70
     1
102
RTVSPropertyOp37
 70
     1
102
RTVSPropertyOp38
 70
     1
102
RTVSPropertyOp39
 70
     1
102
RTVSPropertyOp40
 70
     1
102
RTVSPropertyOp41
 70
     1
102
RTVSPropertyOp42
 70
     1
102
RTVSPropertyOp43
 70
     1
102
RTVSPropertyOp44
 70
     1
102
RTVSPropertyOp45
 70
     1
102
RTVSPropertyOp46
 70
     1
102
RTVSPropertyOp47
 70
     1
102
RTVSPropertyOp48
 70
     1
102
RTVSPropertyOp49
 70
     1
102
RTVSPropertyOp50
 70
     1
102
RTVSPropertyOp51
 70
     0
102
RTVSPropertyOp52
 70
     0
102
RTVSPropertyOp53
 70
     1
102
RTVSPropertyOp54
 70
     1
102
RTVSPropertyOp55
 70
     1
102
RTVSPropertyOp56
 70
     1
102
RTVSPropertyOp57
 70
     1
102
RTVSPropertyOp58
 70
     1
102
RTVSPropertyOp59
 70
     1
102
RTVSPropertyOp60
 70
     1
102
RTVSPropertyOp61
 70
     1
102
RTVSPropertyOp62
 70
     1
  0
XRECORD
  5
14F5
102
{ACAD_REACTORS
330
14F4
102
}
330
14F4
100
AcDbXrecord
280
     1
102
RTVSPost2010Prop28
280
     0
102
RTVSPost2010PropOp28
 70
     0
102
RTVSPost2010Prop29
280
     1
102
RTVSPost2010PropOp29
 70
     0
102
RTVSPost2010Prop30
280
     1
102
RTVSPost2010PropOp30
 70
     0
102
RTVSPost2010Prop31
280
     0
102
RTVSPost2010PropOp31
 70
     0
102
RTVSPost2010Prop32
280
     0
102
RTVSPost2010PropOp32
 70
     0
102
RTVSPost2010Prop33
280
     0
102
RTVSPost2010PropOp33
 70
     0
102
RTVSPost2010Prop34
280
     0
102
RTVSPost2010PropOp34
 70
     0
102
RTVSPost2010Prop35
280
     0
102
RTVSPost2010PropOp35
 70
     0
102
RTVSPost2010Prop36
280
     0
102
RTVSPost2010PropOp36
 70
     0
102
RTVSPost2010Prop37
 90
       50
102
RTVSPost2010PropOp37
 70
     0
102
RTVSPost2010Prop38
140
0.0
102
RTVSPost2010PropOp38
 70
     0
102
RTVSPost2010Prop39
140
1.0
102
RTVSPost2010PropOp39
 70
     0
102
RTVSPost2010Prop40
 90
        0
102
RTVSPost2010PropOp40
 70
     0
102
RTVSPost2010Prop41ColorIndex
 90
       18
102
RTVSPost2010Prop41ColorRGB
 90
        0
102
RTVSPost2010PropOp41
 70
     0
102
RTVSPost2010Prop42
 90
       50
102
RTVSPost2010PropOp42
 70
     0
102
RTVSPost2010Prop43
 90
        3
102
RTVSPost2010PropOp43
 70
     0
102
RTVSPost2010Prop44ColorIndex
 90
        5
102
RTVSPost2010Prop44ColorRGB
 90
      255
102
RTVSPost2010PropOp44
 70
     0
102
RTVSPost2010Prop45
280
     0
102
RTVSPost2010PropOp45
 70
     0
102
RTVSPost2010Prop46
 90
       50
102
RTVSPost2010PropOp46
 70
     0
102
RTVSPost2010Prop47
 90
       50
102
RTVSPost2010PropOp47
 70
     0
102
RTVSPost2010Prop48
 90
       50
102
RTVSPost2010PropOp48
 70
     0
102
RTVSPost2010Prop49
280
     0
102
RTVSPost2010PropOp49
 70
     0
102
RTVSPost2010Prop50
 90
       50
102
RTVSPost2010PropOp50
 70
     0
102
RTVSPost2010Prop51ColorIndex
 90
      256
102
RTVSPost2010Prop51ColorRGB
 90
-16777216
102
RTVSPost2010PropOp51
 70
     0
102
RTVSPost2010Prop52
140
1.0
102
RTVSPost2010PropOp52
 70
     0
102
RTVSPost2010Prop53
 90
        2
102
RTVSPost2010PropOp53
 70
     0
102
RTVSPost2010Prop54
  1
strokes_ogs.tif
102
RTVSPost2010PropOp54
 70
     0
102
RTVSPost2010Prop55
280
     0
102
RTVSPost2010PropOp55
 70
     0
102
RTVSPost2010Prop56
140
1.0
102
RTVSPost2010PropOp56
 70
     0
102
RTVSPost2010Prop57
140
1.0
102
RTVSPost2010PropOp57
 70
     0
102
RTVSPropertyOp0
 70
     0
102
RTVSPropertyOp1
 70
     0
102
RTVSPropertyOp2
 70
     0
102
RTVSPropertyOp3
 70
     0
102
RTVSPropertyOp4
 70
     0
102
RTVSPropertyOp5
 70
     0
102
RTVSPropertyOp6
 70
     0
102
RTVSPropertyOp7
 70
     0
102
RTVSPropertyOp8
 70
     0
102
RTVSPropertyOp9
 70
     0
102
RTVSPropertyOp10
 70
     0
102
RTVSPropertyOp11
 70
     0
102
RTVSPropertyOp12
 70
     0
102
RTVSPropertyOp13
 70
     0
102
RTVSPropertyOp14
 70
     2
102
RTVSPropertyOp15
 70
     0
102
RTVSPropertyOp16
 70
     0
102
RTVSPropertyOp17
 70
     0
102
RTVSPropertyOp18
 70
     0
102
RTVSPropertyOp19
 70
     0
102
RTVSPropertyOp20
 70
     0
102
RTVSPropertyOp21
 70
     0
102
RTVSPropertyOp22
 70
     0
102
RTVSPropertyOp23
 70
     0
102
RTVSPropertyOp24
 70
     0
102
RTVSPropertyOp25
 70
     0
102
RTVSPropertyOp26
 70
     0
102
RTVSPropertyOp27
 70
     0
102
RTVSPropertyOp28
 70
     0
102
RTVSPropertyOp29
 70
     0
102
RTVSPropertyOp30
 70
     0
102
RTVSPropertyOp31
 70
     0
102
RTVSPropertyOp32
 70
     0
102
RTVSPropertyOp33
 70
     0
102
RTVSPropertyOp34
 70
     0
102
RTVSPropertyOp35
 70
     0
102
RTVSPropertyOp36
 70
     0
102
RTVSPropertyOp37
 70
     0
102
RTVSPropertyOp38
 70
     0
102
RTVSPropertyOp39
 70
     0
102
RTVSPropertyOp40
 70
     0
102
RTVSPropertyOp41
 70
     0
102
RTVSPropertyOp42
 70
     0
102
RTVSPropertyOp43
 70
     0
102
RTVSPropertyOp44
 70
     0
102
RTVSPropertyOp45
 70
     0
102
RTVSPropertyOp46
 70
     0
102
RTVSPropertyOp47
 70
     0
102
RTVSPropertyOp48
 70
     0
102
RTVSPropertyOp49
 70
     0
102
RTVSPropertyOp50
 70
     0
102
RTVSPropertyOp51
 70
     0
102
RTVSPropertyOp52
 70
     0
102
RTVSPropertyOp53
 70
     0
102
RTVSPropertyOp54
 70
     0
102
RTVSPropertyOp55
 70
     0
102
RTVSPropertyOp56
 70
     0
102
RTVSPropertyOp57
 70
     0
102
RTVSPropertyOp58
 70
     0
102
RTVSPropertyOp59
 70
     0
102
RTVSPropertyOp60
 70
     0
102
RTVSPropertyOp61
 70
     0
102
RTVSPropertyOp62
 70
     0
  0
XRECORD
  5
14DB
102
{ACAD_REACTORS
330
14DA
102
}
330
14DA
100
AcDbXrecord
280
     1
102
RTVSPost2010Prop28
280
     0
102
RTVSPost2010PropOp28
 70
     1
102
RTVSPost2010Prop29
280
     1
102
RTVSPost2010PropOp29
 70
     1
102
RTVSPost2010Prop30
280
     1
102
RTVSPost2010PropOp30
 70
     1
102
RTVSPost2010Prop31
280
     0
102
RTVSPost2010PropOp31
 70
     1
102
RTVSPost2010Prop32
280
     0
102
RTVSPost2010PropOp32
 70
     1
102
RTVSPost2010Prop33
280
     0
102
RTVSPost2010PropOp33
 70
     1
102
RTVSPost2010Prop34
280
     0
102
RTVSPost2010PropOp34
 70
     1
102
RTVSPost2010Prop35
280
     0
102
RTVSPost2010PropOp35
 70
     1
102
RTVSPost2010Prop36
280
     0
102
RTVSPost2010PropOp36
 70
     1
102
RTVSPost2010Prop37
 90
       50
102
RTVSPost2010PropOp37
 70
     1
102
RTVSPost2010Prop38
140
0.0
102
RTVSPost2010PropOp38
 70
     1
102
RTVSPost2010Prop39
140
1.0
102
RTVSPost2010PropOp39
 70
     1
102
RTVSPost2010Prop40
 90
        0
102
RTVSPost2010PropOp40
 70
     1
102
RTVSPost2010Prop41ColorIndex
 90
       18
102
RTVSPost2010Prop41ColorRGB
 90
        0
102
RTVSPost2010PropOp41
 70
     1
102
RTVSPost2010Prop42
 90
       50
102
RTVSPost2010PropOp42
 70
     1
102
RTVSPost2010Prop43
 90
        3
102
RTVSPost2010PropOp43
 70
     1
102
RTVSPost2010Prop44ColorIndex
 90
        5
102
RTVSPost2010Prop44ColorRGB
 90
      255
102
RTVSPost2010PropOp44
 70
     1
102
RTVSPost2010Prop45
280
     0
102
RTVSPost2010PropOp45
 70
     1
102
RTVSPost2010Prop46
 90
       50
102
RTVSPost2010PropOp46
 70
     1
102
RTVSPost2010Prop47
 90
       50
102
RTVSPost2010PropOp47
 70
     1
102
RTVSPost2010Prop48
 90
       50
102
RTVSPost2010PropOp48
 70
     1
102
RTVSPost2010Prop49
280
     0
102
RTVSPost2010PropOp49
 70
     1
102
RTVSPost2010Prop50
 90
       50
102
RTVSPost2010PropOp50
 70
     1
102
RTVSPost2010Prop51ColorIndex
 90
      256
102
RTVSPost2010Prop51ColorRGB
 90
-16777216
102
RTVSPost2010PropOp51
 70
     0
102
RTVSPost2010Prop52
140
1.0
102
RTVSPost2010PropOp52
 70
     0
102
RTVSPost2010Prop53
 90
        2
102
RTVSPost2010PropOp53
 70
     1
102
RTVSPost2010Prop54
  1
strokes_ogs.tif
102
RTVSPost2010PropOp54
 70
     1
102
RTVSPost2010Prop55
280
     0
102
RTVSPost2010PropOp55
 70
     1
102
RTVSPost2010Prop56
140
1.0
102
RTVSPost2010PropOp56
 70
     1
102
RTVSPost2010Prop57
140
1.0
102
RTVSPost2010PropOp57
 70
     1
102
RTVSPropertyOp0
 70
     1
102
RTVSPropertyOp1
 70
     1
102
RTVSPropertyOp2
 70
     1
102
RTVSPropertyOp3
 70
     1
102
RTVSPropertyOp4
 70
     1
102
RTVSPropertyOp5
 70
     1
102
RTVSPropertyOp6
 70
     1
102
RTVSPropertyOp7
 70
     1
102
RTVSPropertyOp8
 70
     1
102
RTVSPropertyOp9
 70
     1
102
RTVSPropertyOp10
 70
     1
102
RTVSPropertyOp11
 70
     1
102
RTVSPropertyOp12
 70
     1
102
RTVSPropertyOp13
 70
     1
102
RTVSPropertyOp14
 70
     1
102
RTVSPropertyOp15
 70
     1
102
RTVSPropertyOp16
 70
     1
102
RTVSPropertyOp17
 70
     1
102
RTVSPropertyOp18
 70
     1
102
RTVSPropertyOp19
 70
     1
102
RTVSPropertyOp20
 70
     1
102
RTVSPropertyOp21
 70
     1
102
RTVSPropertyOp22
 70
     1
102
RTVSPropertyOp23
 70
     1
102
RTVSPropertyOp24
 70
     1
102
RTVSPropertyOp25
 70
     1
102
RTVSPropertyOp26
 70
     1
102
RTVSPropertyOp27
 70
     1
102
RTVSPropertyOp28
 70
     1
102
RTVSPropertyOp29
 70
     1
102
RTVSPropertyOp30
 70
     1
102
RTVSPropertyOp31
 70
     1
102
RTVSPropertyOp32
 70
     1
102
RTVSPropertyOp33
 70
     1
102
RTVSPropertyOp34
 70
     1
102
RTVSPropertyOp35
 70
     1
102
RTVSPropertyOp36
 70
     1
102
RTVSPropertyOp37
 70
     1
102
RTVSPropertyOp38
 70
     1
102
RTVSPropertyOp39
 70
     1
102
RTVSPropertyOp40
 70
     1
102
RTVSPropertyOp41
 70
     1
102
RTVSPropertyOp42
 70
     1
102
RTVSPropertyOp43
 70
     1
102
RTVSPropertyOp44
 70
     1
102
RTVSPropertyOp45
 70
     1
102
RTVSPropertyOp46
 70
     1
102
RTVSPropertyOp47
 70
     1
102
RTVSPropertyOp48
 70
     1
102
RTVSPropertyOp49
 70
     1
102
RTVSPropertyOp50
 70
     1
102
RTVSPropertyOp51
 70
     0
102
RTVSPropertyOp52
 70
     0
102
RTVSPropertyOp53
 70
     1
102
RTVSPropertyOp54
 70
     1
102
RTVSPropertyOp55
 70
     1
102
RTVSPropertyOp56
 70
     1
102
RTVSPropertyOp57
 70
     1
102
RTVSPropertyOp58
 70
     1
102
RTVSPropertyOp59
 70
     1
102
RTVSPropertyOp60
 70
     1
102
RTVSPropertyOp61
 70
     1
102
RTVSPropertyOp62
 70
     1
  0
XRECORD
  5
14F1
102
{ACAD_REACTORS
330
14F0
102
}
330
14F0
100
AcDbXrecord
280
     1
102
RTVSPost2010Prop28
280
     0
102
RTVSPost2010PropOp28
 70
     1
102
RTVSPost2010Prop29
280
     1
102
RTVSPost2010PropOp29
 70
     1
102
RTVSPost2010Prop30
280
     1
102
RTVSPost2010PropOp30
 70
     1
102
RTVSPost2010Prop31
280
     0
102
RTVSPost2010PropOp31
 70
     1
102
RTVSPost2010Prop32
280
     0
102
RTVSPost2010PropOp32
 70
     1
102
RTVSPost2010Prop33
280
     0
102
RTVSPost2010PropOp33
 70
     1
102
RTVSPost2010Prop34
280
     0
102
RTVSPost2010PropOp34
 70
     1
102
RTVSPost2010Prop35
280
     0
102
RTVSPost2010PropOp35
 70
     1
102
RTVSPost2010Prop36
280
     0
102
RTVSPost2010PropOp36
 70
     1
102
RTVSPost2010Prop37
 90
       50
102
RTVSPost2010PropOp37
 70
     1
102
RTVSPost2010Prop38
140
0.0
102
RTVSPost2010PropOp38
 70
     1
102
RTVSPost2010Prop39
140
1.0
102
RTVSPost2010PropOp39
 70
     1
102
RTVSPost2010Prop40
 90
        0
102
RTVSPost2010PropOp40
 70
     1
102
RTVSPost2010Prop41ColorIndex
 90
       18
102
RTVSPost2010Prop41ColorRGB
 90
        0
102
RTVSPost2010PropOp41
 70
     1
102
RTVSPost2010Prop42
 90
       50
102
RTVSPost2010PropOp42
 70
     1
102
RTVSPost2010Prop43
 90
        3
102
RTVSPost2010PropOp43
 70
     1
102
RTVSPost2010Prop44ColorIndex
 90
        5
102
RTVSPost2010Prop44ColorRGB
 90
      255
102
RTVSPost2010PropOp44
 70
     1
102
RTVSPost2010Prop45
280
     0
102
RTVSPost2010PropOp45
 70
     1
102
RTVSPost2010Prop46
 90
       50
102
RTVSPost2010PropOp46
 70
     1
102
RTVSPost2010Prop47
 90
       50
102
RTVSPost2010PropOp47
 70
     1
102
RTVSPost2010Prop48
 90
       50
102
RTVSPost2010PropOp48
 70
     1
102
RTVSPost2010Prop49
280
     0
102
RTVSPost2010PropOp49
 70
     1
102
RTVSPost2010Prop50
 90
       50
102
RTVSPost2010PropOp50
 70
     1
102
RTVSPost2010Prop51ColorIndex
 90
      256
102
RTVSPost2010Prop51ColorRGB
 90
-16777216
102
RTVSPost2010PropOp51
 70
     0
102
RTVSPost2010Prop52
140
1.0
102
RTVSPost2010PropOp52
 70
     0
102
RTVSPost2010Prop53
 90
        2
102
RTVSPost2010PropOp53
 70
     1
102
RTVSPost2010Prop54
  1
strokes_ogs.tif
102
RTVSPost2010PropOp54
 70
     1
102
RTVSPost2010Prop55
280
     0
102
RTVSPost2010PropOp55
 70
     1
102
RTVSPost2010Prop56
140
1.0
102
RTVSPost2010PropOp56
 70
     1
102
RTVSPost2010Prop57
140
1.0
102
RTVSPost2010PropOp57
 70
     1
102
RTVSPropertyOp0
 70
     1
102
RTVSPropertyOp1
 70
     1
102
RTVSPropertyOp2
 70
     1
102
RTVSPropertyOp3
 70
     1
102
RTVSPropertyOp4
 70
     1
102
RTVSPropertyOp5
 70
     1
102
RTVSPropertyOp6
 70
     1
102
RTVSPropertyOp7
 70
     1
102
RTVSPropertyOp8
 70
     1
102
RTVSPropertyOp9
 70
     1
102
RTVSPropertyOp10
 70
     1
102
RTVSPropertyOp11
 70
     1
102
RTVSPropertyOp12
 70
     1
102
RTVSPropertyOp13
 70
     1
102
RTVSPropertyOp14
 70
     1
102
RTVSPropertyOp15
 70
     1
102
RTVSPropertyOp16
 70
     1
102
RTVSPropertyOp17
 70
     1
102
RTVSPropertyOp18
 70
     1
102
RTVSPropertyOp19
 70
     1
102
RTVSPropertyOp20
 70
     1
102
RTVSPropertyOp21
 70
     1
102
RTVSPropertyOp22
 70
     1
102
RTVSPropertyOp23
 70
     1
102
RTVSPropertyOp24
 70
     1
102
RTVSPropertyOp25
 70
     1
102
RTVSPropertyOp26
 70
     1
102
RTVSPropertyOp27
 70
     1
102
RTVSPropertyOp28
 70
     1
102
RTVSPropertyOp29
 70
     1
102
RTVSPropertyOp30
 70
     1
102
RTVSPropertyOp31
 70
     1
102
RTVSPropertyOp32
 70
     1
102
RTVSPropertyOp33
 70
     1
102
RTVSPropertyOp34
 70
     1
102
RTVSPropertyOp35
 70
     1
102
RTVSPropertyOp36
 70
     1
102
RTVSPropertyOp37
 70
     1
102
RTVSPropertyOp38
 70
     1
102
RTVSPropertyOp39
 70
     1
102
RTVSPropertyOp40
 70
     1
102
RTVSPropertyOp41
 70
     1
102
RTVSPropertyOp42
 70
     1
102
RTVSPropertyOp43
 70
     1
102
RTVSPropertyOp44
 70
     1
102
RTVSPropertyOp45
 70
     1
102
RTVSPropertyOp46
 70
     1
102
RTVSPropertyOp47
 70
     1
102
RTVSPropertyOp48
 70
     1
102
RTVSPropertyOp49
 70
     1
102
RTVSPropertyOp50
 70
     1
102
RTVSPropertyOp51
 70
     0
102
RTVSPropertyOp52
 70
     0
102
RTVSPropertyOp53
 70
     1
102
RTVSPropertyOp54
 70
     1
102
RTVSPropertyOp55
 70
     1
102
RTVSPropertyOp56
 70
     1
102
RTVSPropertyOp57
 70
     1
102
RTVSPropertyOp58
 70
     1
102
RTVSPropertyOp59
 70
     1
102
RTVSPropertyOp60
 70
     1
102
RTVSPropertyOp61
 70
     1
102
RTVSPropertyOp62
 70
     1
  0
XRECORD
  5
14EF
102
{ACAD_REACTORS
330
14EE
102
}
330
14EE
100
AcDbXrecord
280
     1
102
RTVSPost2010Prop28
280
     0
102
RTVSPost2010PropOp28
 70
     1
102
RTVSPost2010Prop29
280
     1
102
RTVSPost2010PropOp29
 70
     1
102
RTVSPost2010Prop30
280
     1
102
RTVSPost2010PropOp30
 70
     1
102
RTVSPost2010Prop31
280
     0
102
RTVSPost2010PropOp31
 70
     1
102
RTVSPost2010Prop32
280
     0
102
RTVSPost2010PropOp32
 70
     1
102
RTVSPost2010Prop33
280
     0
102
RTVSPost2010PropOp33
 70
     1
102
RTVSPost2010Prop34
280
     0
102
RTVSPost2010PropOp34
 70
     1
102
RTVSPost2010Prop35
280
     0
102
RTVSPost2010PropOp35
 70
     1
102
RTVSPost2010Prop36
280
     0
102
RTVSPost2010PropOp36
 70
     1
102
RTVSPost2010Prop37
 90
       50
102
RTVSPost2010PropOp37
 70
     1
102
RTVSPost2010Prop38
140
0.0
102
RTVSPost2010PropOp38
 70
     1
102
RTVSPost2010Prop39
140
1.0
102
RTVSPost2010PropOp39
 70
     1
102
RTVSPost2010Prop40
 90
        0
102
RTVSPost2010PropOp40
 70
     1
102
RTVSPost2010Prop41ColorIndex
 90
       18
102
RTVSPost2010Prop41ColorRGB
 90
        0
102
RTVSPost2010PropOp41
 70
     1
102
RTVSPost2010Prop42
 90
       50
102
RTVSPost2010PropOp42
 70
     1
102
RTVSPost2010Prop43
 90
        3
102
RTVSPost2010PropOp43
 70
     1
102
RTVSPost2010Prop44ColorIndex
 90
        5
102
RTVSPost2010Prop44ColorRGB
 90
      255
102
RTVSPost2010PropOp44
 70
     1
102
RTVSPost2010Prop45
280
     0
102
RTVSPost2010PropOp45
 70
     1
102
RTVSPost2010Prop46
 90
       50
102
RTVSPost2010PropOp46
 70
     1
102
RTVSPost2010Prop47
 90
       50
102
RTVSPost2010PropOp47
 70
     1
102
RTVSPost2010Prop48
 90
       50
102
RTVSPost2010PropOp48
 70
     1
102
RTVSPost2010Prop49
280
     0
102
RTVSPost2010PropOp49
 70
     1
102
RTVSPost2010Prop50
 90
       50
102
RTVSPost2010PropOp50
 70
     1
102
RTVSPost2010Prop51ColorIndex
 90
      256
102
RTVSPost2010Prop51ColorRGB
 90
-16777216
102
RTVSPost2010PropOp51
 70
     0
102
RTVSPost2010Prop52
140
1.0
102
RTVSPost2010PropOp52
 70
     0
102
RTVSPost2010Prop53
 90
        2
102
RTVSPost2010PropOp53
 70
     1
102
RTVSPost2010Prop54
  1
strokes_ogs.tif
102
RTVSPost2010PropOp54
 70
     1
102
RTVSPost2010Prop55
280
     0
102
RTVSPost2010PropOp55
 70
     1
102
RTVSPost2010Prop56
140
1.0
102
RTVSPost2010PropOp56
 70
     1
102
RTVSPost2010Prop57
140
1.0
102
RTVSPost2010PropOp57
 70
     1
102
RTVSPropertyOp0
 70
     1
102
RTVSPropertyOp1
 70
     1
102
RTVSPropertyOp2
 70
     1
102
RTVSPropertyOp3
 70
     1
102
RTVSPropertyOp4
 70
     1
102
RTVSPropertyOp5
 70
     1
102
RTVSPropertyOp6
 70
     1
102
RTVSPropertyOp7
 70
     1
102
RTVSPropertyOp8
 70
     1
102
RTVSPropertyOp9
 70
     1
102
RTVSPropertyOp10
 70
     1
102
RTVSPropertyOp11
 70
     1
102
RTVSPropertyOp12
 70
     1
102
RTVSPropertyOp13
 70
     1
102
RTVSPropertyOp14
 70
     1
102
RTVSPropertyOp15
 70
     1
102
RTVSPropertyOp16
 70
     1
102
RTVSPropertyOp17
 70
     1
102
RTVSPropertyOp18
 70
     1
102
RTVSPropertyOp19
 70
     1
102
RTVSPropertyOp20
 70
     1
102
RTVSPropertyOp21
 70
     1
102
RTVSPropertyOp22
 70
     1
102
RTVSPropertyOp23
 70
     1
102
RTVSPropertyOp24
 70
     1
102
RTVSPropertyOp25
 70
     1
102
RTVSPropertyOp26
 70
     1
102
RTVSPropertyOp27
 70
     1
102
RTVSPropertyOp28
 70
     1
102
RTVSPropertyOp29
 70
     1
102
RTVSPropertyOp30
 70
     1
102
RTVSPropertyOp31
 70
     1
102
RTVSPropertyOp32
 70
     1
102
RTVSPropertyOp33
 70
     1
102
RTVSPropertyOp34
 70
     1
102
RTVSPropertyOp35
 70
     1
102
RTVSPropertyOp36
 70
     1
102
RTVSPropertyOp37
 70
     1
102
RTVSPropertyOp38
 70
     1
102
RTVSPropertyOp39
 70
     1
102
RTVSPropertyOp40
 70
     1
102
RTVSPropertyOp41
 70
     1
102
RTVSPropertyOp42
 70
     1
102
RTVSPropertyOp43
 70
     1
102
RTVSPropertyOp44
 70
     1
102
RTVSPropertyOp45
 70
     1
102
RTVSPropertyOp46
 70
     1
102
RTVSPropertyOp47
 70
     1
102
RTVSPropertyOp48
 70
     1
102
RTVSPropertyOp49
 70
     1
102
RTVSPropertyOp50
 70
     1
102
RTVSPropertyOp51
 70
     0
102
RTVSPropertyOp52
 70
     0
102
RTVSPropertyOp53
 70
     1
102
RTVSPropertyOp54
 70
     1
102
RTVSPropertyOp55
 70
     1
102
RTVSPropertyOp56
 70
     1
102
RTVSPropertyOp57
 70
     1
102
RTVSPropertyOp58
 70
     1
102
RTVSPropertyOp59
 70
     1
102
RTVSPropertyOp60
 70
     1
102
RTVSPropertyOp61
 70
     1
102
RTVSPropertyOp62
 70
     1
  0
XRECORD
  5
14E9
102
{ACAD_REACTORS
330
14E8
102
}
330
14E8
100
AcDbXrecord
280
     1
102
RTVSPost2010Prop28
280
     0
102
RTVSPost2010PropOp28
 70
     1
102
RTVSPost2010Prop29
280
     1
102
RTVSPost2010PropOp29
 70
     1
102
RTVSPost2010Prop30
280
     1
102
RTVSPost2010PropOp30
 70
     1
102
RTVSPost2010Prop31
280
     0
102
RTVSPost2010PropOp31
 70
     1
102
RTVSPost2010Prop32
280
     0
102
RTVSPost2010PropOp32
 70
     1
102
RTVSPost2010Prop33
280
     0
102
RTVSPost2010PropOp33
 70
     1
102
RTVSPost2010Prop34
280
     0
102
RTVSPost2010PropOp34
 70
     1
102
RTVSPost2010Prop35
280
     0
102
RTVSPost2010PropOp35
 70
     1
102
RTVSPost2010Prop36
280
     0
102
RTVSPost2010PropOp36
 70
     1
102
RTVSPost2010Prop37
 90
       50
102
RTVSPost2010PropOp37
 70
     1
102
RTVSPost2010Prop38
140
0.0
102
RTVSPost2010PropOp38
 70
     1
102
RTVSPost2010Prop39
140
1.0
102
RTVSPost2010PropOp39
 70
     1
102
RTVSPost2010Prop40
 90
        0
102
RTVSPost2010PropOp40
 70
     1
102
RTVSPost2010Prop41ColorIndex
 90
       18
102
RTVSPost2010Prop41ColorRGB
 90
        0
102
RTVSPost2010PropOp41
 70
     1
102
RTVSPost2010Prop42
 90
       50
102
RTVSPost2010PropOp42
 70
     1
102
RTVSPost2010Prop43
 90
        3
102
RTVSPost2010PropOp43
 70
     1
102
RTVSPost2010Prop44ColorIndex
 90
        5
102
RTVSPost2010Prop44ColorRGB
 90
      255
102
RTVSPost2010PropOp44
 70
     1
102
RTVSPost2010Prop45
280
     0
102
RTVSPost2010PropOp45
 70
     1
102
RTVSPost2010Prop46
 90
       50
102
RTVSPost2010PropOp46
 70
     1
102
RTVSPost2010Prop47
 90
       50
102
RTVSPost2010PropOp47
 70
     1
102
RTVSPost2010Prop48
 90
       50
102
RTVSPost2010PropOp48
 70
     1
102
RTVSPost2010Prop49
280
     0
102
RTVSPost2010PropOp49
 70
     1
102
RTVSPost2010Prop50
 90
       50
102
RTVSPost2010PropOp50
 70
     1
102
RTVSPost2010Prop51ColorIndex
 90
      256
102
RTVSPost2010Prop51ColorRGB
 90
-16777216
102
RTVSPost2010PropOp51
 70
     0
102
RTVSPost2010Prop52
140
1.0
102
RTVSPost2010PropOp52
 70
     0
102
RTVSPost2010Prop53
 90
        2
102
RTVSPost2010PropOp53
 70
     1
102
RTVSPost2010Prop54
  1
strokes_ogs.tif
102
RTVSPost2010PropOp54
 70
     1
102
RTVSPost2010Prop55
280
     0
102
RTVSPost2010PropOp55
 70
     1
102
RTVSPost2010Prop56
140
1.0
102
RTVSPost2010PropOp56
 70
     1
102
RTVSPost2010Prop57
140
1.0
102
RTVSPost2010PropOp57
 70
     1
102
RTVSPropertyOp0
 70
     1
102
RTVSPropertyOp1
 70
     1
102
RTVSPropertyOp2
 70
     1
102
RTVSPropertyOp3
 70
     1
102
RTVSPropertyOp4
 70
     1
102
RTVSPropertyOp5
 70
     1
102
RTVSPropertyOp6
 70
     1
102
RTVSPropertyOp7
 70
     1
102
RTVSPropertyOp8
 70
     1
102
RTVSPropertyOp9
 70
     1
102
RTVSPropertyOp10
 70
     1
102
RTVSPropertyOp11
 70
     1
102
RTVSPropertyOp12
 70
     1
102
RTVSPropertyOp13
 70
     1
102
RTVSPropertyOp14
 70
     1
102
RTVSPropertyOp15
 70
     1
102
RTVSPropertyOp16
 70
     1
102
RTVSPropertyOp17
 70
     1
102
RTVSPropertyOp18
 70
     1
102
RTVSPropertyOp19
 70
     1
102
RTVSPropertyOp20
 70
     1
102
RTVSPropertyOp21
 70
     1
102
RTVSPropertyOp22
 70
     1
102
RTVSPropertyOp23
 70
     1
102
RTVSPropertyOp24
 70
     1
102
RTVSPropertyOp25
 70
     1
102
RTVSPropertyOp26
 70
     1
102
RTVSPropertyOp27
 70
     1
102
RTVSPropertyOp28
 70
     1
102
RTVSPropertyOp29
 70
     1
102
RTVSPropertyOp30
 70
     1
102
RTVSPropertyOp31
 70
     1
102
RTVSPropertyOp32
 70
     1
102
RTVSPropertyOp33
 70
     1
102
RTVSPropertyOp34
 70
     1
102
RTVSPropertyOp35
 70
     1
102
RTVSPropertyOp36
 70
     1
102
RTVSPropertyOp37
 70
     1
102
RTVSPropertyOp38
 70
     1
102
RTVSPropertyOp39
 70
     1
102
RTVSPropertyOp40
 70
     1
102
RTVSPropertyOp41
 70
     1
102
RTVSPropertyOp42
 70
     1
102
RTVSPropertyOp43
 70
     1
102
RTVSPropertyOp44
 70
     1
102
RTVSPropertyOp45
 70
     1
102
RTVSPropertyOp46
 70
     1
102
RTVSPropertyOp47
 70
     1
102
RTVSPropertyOp48
 70
     1
102
RTVSPropertyOp49
 70
     1
102
RTVSPropertyOp50
 70
     1
102
RTVSPropertyOp51
 70
     0
102
RTVSPropertyOp52
 70
     0
102
RTVSPropertyOp53
 70
     1
102
RTVSPropertyOp54
 70
     1
102
RTVSPropertyOp55
 70
     1
102
RTVSPropertyOp56
 70
     1
102
RTVSPropertyOp57
 70
     1
102
RTVSPropertyOp58
 70
     1
102
RTVSPropertyOp59
 70
     1
102
RTVSPropertyOp60
 70
     1
102
RTVSPropertyOp61
 70
     1
102
RTVSPropertyOp62
 70
     1
  0
XRECORD
  5
14EB
102
{ACAD_REACTORS
330
14EA
102
}
330
14EA
100
AcDbXrecord
280
     1
102
RTVSPost2010Prop28
280
     0
102
RTVSPost2010PropOp28
 70
     1
102
RTVSPost2010Prop29
280
     1
102
RTVSPost2010PropOp29
 70
     1
102
RTVSPost2010Prop30
280
     1
102
RTVSPost2010PropOp30
 70
     1
102
RTVSPost2010Prop31
280
     0
102
RTVSPost2010PropOp31
 70
     1
102
RTVSPost2010Prop32
280
     0
102
RTVSPost2010PropOp32
 70
     1
102
RTVSPost2010Prop33
280
     0
102
RTVSPost2010PropOp33
 70
     1
102
RTVSPost2010Prop34
280
     0
102
RTVSPost2010PropOp34
 70
     1
102
RTVSPost2010Prop35
280
     0
102
RTVSPost2010PropOp35
 70
     1
102
RTVSPost2010Prop36
280
     0
102
RTVSPost2010PropOp36
 70
     1
102
RTVSPost2010Prop37
 90
       50
102
RTVSPost2010PropOp37
 70
     1
102
RTVSPost2010Prop38
140
0.0
102
RTVSPost2010PropOp38
 70
     1
102
RTVSPost2010Prop39
140
1.0
102
RTVSPost2010PropOp39
 70
     1
102
RTVSPost2010Prop40
 90
        0
102
RTVSPost2010PropOp40
 70
     1
102
RTVSPost2010Prop41ColorIndex
 90
       18
102
RTVSPost2010Prop41ColorRGB
 90
        0
102
RTVSPost2010PropOp41
 70
     1
102
RTVSPost2010Prop42
 90
       50
102
RTVSPost2010PropOp42
 70
     1
102
RTVSPost2010Prop43
 90
        3
102
RTVSPost2010PropOp43
 70
     1
102
RTVSPost2010Prop44ColorIndex
 90
        5
102
RTVSPost2010Prop44ColorRGB
 90
      255
102
RTVSPost2010PropOp44
 70
     1
102
RTVSPost2010Prop45
280
     0
102
RTVSPost2010PropOp45
 70
     1
102
RTVSPost2010Prop46
 90
       50
102
RTVSPost2010PropOp46
 70
     1
102
RTVSPost2010Prop47
 90
       50
102
RTVSPost2010PropOp47
 70
     1
102
RTVSPost2010Prop48
 90
       50
102
RTVSPost2010PropOp48
 70
     1
102
RTVSPost2010Prop49
280
     0
102
RTVSPost2010PropOp49
 70
     1
102
RTVSPost2010Prop50
 90
       50
102
RTVSPost2010PropOp50
 70
     1
102
RTVSPost2010Prop51ColorIndex
 90
      256
102
RTVSPost2010Prop51ColorRGB
 90
-16777216
102
RTVSPost2010PropOp51
 70
     0
102
RTVSPost2010Prop52
140
1.0
102
RTVSPost2010PropOp52
 70
     0
102
RTVSPost2010Prop53
 90
        2
102
RTVSPost2010PropOp53
 70
     1
102
RTVSPost2010Prop54
  1
strokes_ogs.tif
102
RTVSPost2010PropOp54
 70
     1
102
RTVSPost2010Prop55
280
     0
102
RTVSPost2010PropOp55
 70
     1
102
RTVSPost2010Prop56
140
1.0
102
RTVSPost2010PropOp56
 70
     1
102
RTVSPost2010Prop57
140
1.0
102
RTVSPost2010PropOp57
 70
     1
102
RTVSPropertyOp0
 70
     1
102
RTVSPropertyOp1
 70
     1
102
RTVSPropertyOp2
 70
     1
102
RTVSPropertyOp3
 70
     1
102
RTVSPropertyOp4
 70
     1
102
RTVSPropertyOp5
 70
     1
102
RTVSPropertyOp6
 70
     1
102
RTVSPropertyOp7
 70
     1
102
RTVSPropertyOp8
 70
     1
102
RTVSPropertyOp9
 70
     1
102
RTVSPropertyOp10
 70
     1
102
RTVSPropertyOp11
 70
     1
102
RTVSPropertyOp12
 70
     1
102
RTVSPropertyOp13
 70
     1
102
RTVSPropertyOp14
 70
     1
102
RTVSPropertyOp15
 70
     1
102
RTVSPropertyOp16
 70
     1
102
RTVSPropertyOp17
 70
     1
102
RTVSPropertyOp18
 70
     1
102
RTVSPropertyOp19
 70
     1
102
RTVSPropertyOp20
 70
     1
102
RTVSPropertyOp21
 70
     1
102
RTVSPropertyOp22
 70
     1
102
RTVSPropertyOp23
 70
     1
102
RTVSPropertyOp24
 70
     1
102
RTVSPropertyOp25
 70
     1
102
RTVSPropertyOp26
 70
     1
102
RTVSPropertyOp27
 70
     1
102
RTVSPropertyOp28
 70
     1
102
RTVSPropertyOp29
 70
     1
102
RTVSPropertyOp30
 70
     1
102
RTVSPropertyOp31
 70
     1
102
RTVSPropertyOp32
 70
     1
102
RTVSPropertyOp33
 70
     1
102
RTVSPropertyOp34
 70
     1
102
RTVSPropertyOp35
 70
     1
102
RTVSPropertyOp36
 70
     1
102
RTVSPropertyOp37
 70
     1
102
RTVSPropertyOp38
 70
     1
102
RTVSPropertyOp39
 70
     1
102
RTVSPropertyOp40
 70
     1
102
RTVSPropertyOp41
 70
     1
102
RTVSPropertyOp42
 70
     1
102
RTVSPropertyOp43
 70
     1
102
RTVSPropertyOp44
 70
     1
102
RTVSPropertyOp45
 70
     1
102
RTVSPropertyOp46
 70
     1
102
RTVSPropertyOp47
 70
     1
102
RTVSPropertyOp48
 70
     1
102
RTVSPropertyOp49
 70
     1
102
RTVSPropertyOp50
 70
     1
102
RTVSPropertyOp51
 70
     0
102
RTVSPropertyOp52
 70
     0
102
RTVSPropertyOp53
 70
     1
102
RTVSPropertyOp54
 70
     1
102
RTVSPropertyOp55
 70
     1
102
RTVSPropertyOp56
 70
     1
102
RTVSPropertyOp57
 70
     1
102
RTVSPropertyOp58
 70
     1
102
RTVSPropertyOp59
 70
     1
102
RTVSPropertyOp60
 70
     1
102
RTVSPropertyOp61
 70
     1
102
RTVSPropertyOp62
 70
     1
  0
XRECORD
  5
14E1
102
{ACAD_REACTORS
330
14E0
102
}
330
14E0
100
AcDbXrecord
280
     1
102
RTVSPost2010Prop28
280
     0
102
RTVSPost2010PropOp28
 70
     1
102
RTVSPost2010Prop29
280
     1
102
RTVSPost2010PropOp29
 70
     1
102
RTVSPost2010Prop30
280
     1
102
RTVSPost2010PropOp30
 70
     1
102
RTVSPost2010Prop31
280
     0
102
RTVSPost2010PropOp31
 70
     1
102
RTVSPost2010Prop32
280
     0
102
RTVSPost2010PropOp32
 70
     1
102
RTVSPost2010Prop33
280
     0
102
RTVSPost2010PropOp33
 70
     1
102
RTVSPost2010Prop34
280
     0
102
RTVSPost2010PropOp34
 70
     1
102
RTVSPost2010Prop35
280
     0
102
RTVSPost2010PropOp35
 70
     1
102
RTVSPost2010Prop36
280
     0
102
RTVSPost2010PropOp36
 70
     1
102
RTVSPost2010Prop37
 90
       50
102
RTVSPost2010PropOp37
 70
     1
102
RTVSPost2010Prop38
140
0.0
102
RTVSPost2010PropOp38
 70
     1
102
RTVSPost2010Prop39
140
1.0
102
RTVSPost2010PropOp39
 70
     1
102
RTVSPost2010Prop40
 90
        0
102
RTVSPost2010PropOp40
 70
     1
102
RTVSPost2010Prop41ColorIndex
 90
       18
102
RTVSPost2010Prop41ColorRGB
 90
        0
102
RTVSPost2010PropOp41
 70
     1
102
RTVSPost2010Prop42
 90
       50
102
RTVSPost2010PropOp42
 70
     1
102
RTVSPost2010Prop43
 90
        3
102
RTVSPost2010PropOp43
 70
     1
102
RTVSPost2010Prop44ColorIndex
 90
        5
102
RTVSPost2010Prop44ColorRGB
 90
      255
102
RTVSPost2010PropOp44
 70
     1
102
RTVSPost2010Prop45
280
     0
102
RTVSPost2010PropOp45
 70
     1
102
RTVSPost2010Prop46
 90
       50
102
RTVSPost2010PropOp46
 70
     1
102
RTVSPost2010Prop47
 90
       50
102
RTVSPost2010PropOp47
 70
     1
102
RTVSPost2010Prop48
 90
       50
102
RTVSPost2010PropOp48
 70
     1
102
RTVSPost2010Prop49
280
     0
102
RTVSPost2010PropOp49
 70
     1
102
RTVSPost2010Prop50
 90
       50
102
RTVSPost2010PropOp50
 70
     1
102
RTVSPost2010Prop51ColorIndex
 90
      256
102
RTVSPost2010Prop51ColorRGB
 90
-16777216
102
RTVSPost2010PropOp51
 70
     0
102
RTVSPost2010Prop52
140
1.0
102
RTVSPost2010PropOp52
 70
     0
102
RTVSPost2010Prop53
 90
        2
102
RTVSPost2010PropOp53
 70
     1
102
RTVSPost2010Prop54
  1
strokes_ogs.tif
102
RTVSPost2010PropOp54
 70
     1
102
RTVSPost2010Prop55
280
     0
102
RTVSPost2010PropOp55
 70
     1
102
RTVSPost2010Prop56
140
1.0
102
RTVSPost2010PropOp56
 70
     1
102
RTVSPost2010Prop57
140
1.0
102
RTVSPost2010PropOp57
 70
     1
102
RTVSPropertyOp0
 70
     1
102
RTVSPropertyOp1
 70
     1
102
RTVSPropertyOp2
 70
     1
102
RTVSPropertyOp3
 70
     1
102
RTVSPropertyOp4
 70
     1
102
RTVSPropertyOp5
 70
     1
102
RTVSPropertyOp6
 70
     1
102
RTVSPropertyOp7
 70
     1
102
RTVSPropertyOp8
 70
     1
102
RTVSPropertyOp9
 70
     1
102
RTVSPropertyOp10
 70
     1
102
RTVSPropertyOp11
 70
     1
102
RTVSPropertyOp12
 70
     1
102
RTVSPropertyOp13
 70
     1
102
RTVSPropertyOp14
 70
     1
102
RTVSPropertyOp15
 70
     1
102
RTVSPropertyOp16
 70
     1
102
RTVSPropertyOp17
 70
     1
102
RTVSPropertyOp18
 70
     1
102
RTVSPropertyOp19
 70
     1
102
RTVSPropertyOp20
 70
     1
102
RTVSPropertyOp21
 70
     1
102
RTVSPropertyOp22
 70
     1
102
RTVSPropertyOp23
 70
     1
102
RTVSPropertyOp24
 70
     1
102
RTVSPropertyOp25
 70
     1
102
RTVSPropertyOp26
 70
     1
102
RTVSPropertyOp27
 70
     1
102
RTVSPropertyOp28
 70
     1
102
RTVSPropertyOp29
 70
     1
102
RTVSPropertyOp30
 70
     1
102
RTVSPropertyOp31
 70
     1
102
RTVSPropertyOp32
 70
     1
102
RTVSPropertyOp33
 70
     1
102
RTVSPropertyOp34
 70
     1
102
RTVSPropertyOp35
 70
     1
102
RTVSPropertyOp36
 70
     1
102
RTVSPropertyOp37
 70
     1
102
RTVSPropertyOp38
 70
     1
102
RTVSPropertyOp39
 70
     1
102
RTVSPropertyOp40
 70
     1
102
RTVSPropertyOp41
 70
     1
102
RTVSPropertyOp42
 70
     1
102
RTVSPropertyOp43
 70
     1
102
RTVSPropertyOp44
 70
     1
102
RTVSPropertyOp45
 70
     1
102
RTVSPropertyOp46
 70
     1
102
RTVSPropertyOp47
 70
     1
102
RTVSPropertyOp48
 70
     1
102
RTVSPropertyOp49
 70
     1
102
RTVSPropertyOp50
 70
     1
102
RTVSPropertyOp51
 70
     0
102
RTVSPropertyOp52
 70
     0
102
RTVSPropertyOp53
 70
     1
102
RTVSPropertyOp54
 70
     1
102
RTVSPropertyOp55
 70
     1
102
RTVSPropertyOp56
 70
     1
102
RTVSPropertyOp57
 70
     1
102
RTVSPropertyOp58
 70
     1
102
RTVSPropertyOp59
 70
     1
102
RTVSPropertyOp60
 70
     1
102
RTVSPropertyOp61
 70
     1
102
RTVSPropertyOp62
 70
     1
  0
XRECORD
  5
14D5
102
{ACAD_REACTORS
330
14D4
102
}
330
14D4
100
AcDbXrecord
280
     1
102
RTVSPost2010Prop28
280
     0
102
RTVSPost2010PropOp28
 70
     1
102
RTVSPost2010Prop29
280
     1
102
RTVSPost2010PropOp29
 70
     1
102
RTVSPost2010Prop30
280
     1
102
RTVSPost2010PropOp30
 70
     1
102
RTVSPost2010Prop31
280
     0
102
RTVSPost2010PropOp31
 70
     1
102
RTVSPost2010Prop32
280
     0
102
RTVSPost2010PropOp32
 70
     1
102
RTVSPost2010Prop33
280
     0
102
RTVSPost2010PropOp33
 70
     1
102
RTVSPost2010Prop34
280
     0
102
RTVSPost2010PropOp34
 70
     1
102
RTVSPost2010Prop35
280
     0
102
RTVSPost2010PropOp35
 70
     1
102
RTVSPost2010Prop36
280
     0
102
RTVSPost2010PropOp36
 70
     1
102
RTVSPost2010Prop37
 90
       50
102
RTVSPost2010PropOp37
 70
     1
102
RTVSPost2010Prop38
140
0.0
102
RTVSPost2010PropOp38
 70
     1
102
RTVSPost2010Prop39
140
1.0
102
RTVSPost2010PropOp39
 70
     1
102
RTVSPost2010Prop40
 90
        0
102
RTVSPost2010PropOp40
 70
     1
102
RTVSPost2010Prop41ColorIndex
 90
       18
102
RTVSPost2010Prop41ColorRGB
 90
        0
102
RTVSPost2010PropOp41
 70
     1
102
RTVSPost2010Prop42
 90
       50
102
RTVSPost2010PropOp42
 70
     1
102
RTVSPost2010Prop43
 90
        3
102
RTVSPost2010PropOp43
 70
     1
102
RTVSPost2010Prop44ColorIndex
 90
        5
102
RTVSPost2010Prop44ColorRGB
 90
      255
102
RTVSPost2010PropOp44
 70
     1
102
RTVSPost2010Prop45
280
     0
102
RTVSPost2010PropOp45
 70
     1
102
RTVSPost2010Prop46
 90
       50
102
RTVSPost2010PropOp46
 70
     1
102
RTVSPost2010Prop47
 90
       50
102
RTVSPost2010PropOp47
 70
     1
102
RTVSPost2010Prop48
 90
       50
102
RTVSPost2010PropOp48
 70
     1
102
RTVSPost2010Prop49
280
     0
102
RTVSPost2010PropOp49
 70
     1
102
RTVSPost2010Prop50
 90
       50
102
RTVSPost2010PropOp50
 70
     1
102
RTVSPost2010Prop51ColorIndex
 90
      256
102
RTVSPost2010Prop51ColorRGB
 90
-16777216
102
RTVSPost2010PropOp51
 70
     0
102
RTVSPost2010Prop52
140
1.0
102
RTVSPost2010PropOp52
 70
     0
102
RTVSPost2010Prop53
 90
        2
102
RTVSPost2010PropOp53
 70
     1
102
RTVSPost2010Prop54
  1
strokes_ogs.tif
102
RTVSPost2010PropOp54
 70
     1
102
RTVSPost2010Prop55
280
     0
102
RTVSPost2010PropOp55
 70
     1
102
RTVSPost2010Prop56
140
1.0
102
RTVSPost2010PropOp56
 70
     1
102
RTVSPost2010Prop57
140
1.0
102
RTVSPost2010PropOp57
 70
     1
102
RTVSPropertyOp0
 70
     1
102
RTVSPropertyOp1
 70
     1
102
RTVSPropertyOp2
 70
     1
102
RTVSPropertyOp3
 70
     1
102
RTVSPropertyOp4
 70
     1
102
RTVSPropertyOp5
 70
     1
102
RTVSPropertyOp6
 70
     1
102
RTVSPropertyOp7
 70
     1
102
RTVSPropertyOp8
 70
     1
102
RTVSPropertyOp9
 70
     1
102
RTVSPropertyOp10
 70
     1
102
RTVSPropertyOp11
 70
     1
102
RTVSPropertyOp12
 70
     1
102
RTVSPropertyOp13
 70
     1
102
RTVSPropertyOp14
 70
     1
102
RTVSPropertyOp15
 70
     1
102
RTVSPropertyOp16
 70
     1
102
RTVSPropertyOp17
 70
     1
102
RTVSPropertyOp18
 70
     1
102
RTVSPropertyOp19
 70
     1
102
RTVSPropertyOp20
 70
     1
102
RTVSPropertyOp21
 70
     1
102
RTVSPropertyOp22
 70
     1
102
RTVSPropertyOp23
 70
     1
102
RTVSPropertyOp24
 70
     1
102
RTVSPropertyOp25
 70
     1
102
RTVSPropertyOp26
 70
     1
102
RTVSPropertyOp27
 70
     1
102
RTVSPropertyOp28
 70
     1
102
RTVSPropertyOp29
 70
     1
102
RTVSPropertyOp30
 70
     1
102
RTVSPropertyOp31
 70
     1
102
RTVSPropertyOp32
 70
     1
102
RTVSPropertyOp33
 70
     1
102
RTVSPropertyOp34
 70
     1
102
RTVSPropertyOp35
 70
     1
102
RTVSPropertyOp36
 70
     1
102
RTVSPropertyOp37
 70
     1
102
RTVSPropertyOp38
 70
     1
102
RTVSPropertyOp39
 70
     1
102
RTVSPropertyOp40
 70
     1
102
RTVSPropertyOp41
 70
     1
102
RTVSPropertyOp42
 70
     1
102
RTVSPropertyOp43
 70
     1
102
RTVSPropertyOp44
 70
     1
102
RTVSPropertyOp45
 70
     1
102
RTVSPropertyOp46
 70
     1
102
RTVSPropertyOp47
 70
     1
102
RTVSPropertyOp48
 70
     1
102
RTVSPropertyOp49
 70
     1
102
RTVSPropertyOp50
 70
     1
102
RTVSPropertyOp51
 70
     0
102
RTVSPropertyOp52
 70
     0
102
RTVSPropertyOp53
 70
     1
102
RTVSPropertyOp54
 70
     1
102
RTVSPropertyOp55
 70
     1
102
RTVSPropertyOp56
 70
     1
102
RTVSPropertyOp57
 70
     1
102
RTVSPropertyOp58
 70
     1
102
RTVSPropertyOp59
 70
     1
102
RTVSPropertyOp60
 70
     1
102
RTVSPropertyOp61
 70
     1
102
RTVSPropertyOp62
 70
     1
  0
XRECORD
  5
14ED
102
{ACAD_REACTORS
330
14EC
102
}
330
14EC
100
AcDbXrecord
280
     1
102
RTVSPost2010Prop28
280
     0
102
RTVSPost2010PropOp28
 70
     1
102
RTVSPost2010Prop29
280
     1
102
RTVSPost2010PropOp29
 70
     1
102
RTVSPost2010Prop30
280
     1
102
RTVSPost2010PropOp30
 70
     1
102
RTVSPost2010Prop31
280
     0
102
RTVSPost2010PropOp31
 70
     1
102
RTVSPost2010Prop32
280
     0
102
RTVSPost2010PropOp32
 70
     1
102
RTVSPost2010Prop33
280
     0
102
RTVSPost2010PropOp33
 70
     1
102
RTVSPost2010Prop34
280
     0
102
RTVSPost2010PropOp34
 70
     1
102
RTVSPost2010Prop35
280
     0
102
RTVSPost2010PropOp35
 70
     1
102
RTVSPost2010Prop36
280
     0
102
RTVSPost2010PropOp36
 70
     1
102
RTVSPost2010Prop37
 90
       50
102
RTVSPost2010PropOp37
 70
     1
102
RTVSPost2010Prop38
140
0.0
102
RTVSPost2010PropOp38
 70
     1
102
RTVSPost2010Prop39
140
1.0
102
RTVSPost2010PropOp39
 70
     1
102
RTVSPost2010Prop40
 90
        0
102
RTVSPost2010PropOp40
 70
     1
102
RTVSPost2010Prop41ColorIndex
 90
       18
102
RTVSPost2010Prop41ColorRGB
 90
        0
102
RTVSPost2010PropOp41
 70
     1
102
RTVSPost2010Prop42
 90
       50
102
RTVSPost2010PropOp42
 70
     1
102
RTVSPost2010Prop43
 90
        3
102
RTVSPost2010PropOp43
 70
     1
102
RTVSPost2010Prop44ColorIndex
 90
        5
102
RTVSPost2010Prop44ColorRGB
 90
      255
102
RTVSPost2010PropOp44
 70
     1
102
RTVSPost2010Prop45
280
     0
102
RTVSPost2010PropOp45
 70
     1
102
RTVSPost2010Prop46
 90
       50
102
RTVSPost2010PropOp46
 70
     1
102
RTVSPost2010Prop47
 90
       50
102
RTVSPost2010PropOp47
 70
     1
102
RTVSPost2010Prop48
 90
       50
102
RTVSPost2010PropOp48
 70
     1
102
RTVSPost2010Prop49
280
     0
102
RTVSPost2010PropOp49
 70
     1
102
RTVSPost2010Prop50
 90
       50
102
RTVSPost2010PropOp50
 70
     1
102
RTVSPost2010Prop51ColorIndex
 90
      256
102
RTVSPost2010Prop51ColorRGB
 90
-16777216
102
RTVSPost2010PropOp51
 70
     0
102
RTVSPost2010Prop52
140
1.0
102
RTVSPost2010PropOp52
 70
     0
102
RTVSPost2010Prop53
 90
        2
102
RTVSPost2010PropOp53
 70
     1
102
RTVSPost2010Prop54
  1
strokes_ogs.tif
102
RTVSPost2010PropOp54
 70
     1
102
RTVSPost2010Prop55
280
     0
102
RTVSPost2010PropOp55
 70
     1
102
RTVSPost2010Prop56
140
1.0
102
RTVSPost2010PropOp56
 70
     1
102
RTVSPost2010Prop57
140
1.0
102
RTVSPost2010PropOp57
 70
     1
102
RTVSPropertyOp0
 70
     1
102
RTVSPropertyOp1
 70
     1
102
RTVSPropertyOp2
 70
     1
102
RTVSPropertyOp3
 70
     1
102
RTVSPropertyOp4
 70
     1
102
RTVSPropertyOp5
 70
     1
102
RTVSPropertyOp6
 70
     1
102
RTVSPropertyOp7
 70
     1
102
RTVSPropertyOp8
 70
     1
102
RTVSPropertyOp9
 70
     1
102
RTVSPropertyOp10
 70
     1
102
RTVSPropertyOp11
 70
     1
102
RTVSPropertyOp12
 70
     1
102
RTVSPropertyOp13
 70
     1
102
RTVSPropertyOp14
 70
     1
102
RTVSPropertyOp15
 70
     1
102
RTVSPropertyOp16
 70
     1
102
RTVSPropertyOp17
 70
     1
102
RTVSPropertyOp18
 70
     1
102
RTVSPropertyOp19
 70
     1
102
RTVSPropertyOp20
 70
     1
102
RTVSPropertyOp21
 70
     1
102
RTVSPropertyOp22
 70
     1
102
RTVSPropertyOp23
 70
     1
102
RTVSPropertyOp24
 70
     1
102
RTVSPropertyOp25
 70
     1
102
RTVSPropertyOp26
 70
     1
102
RTVSPropertyOp27
 70
     1
102
RTVSPropertyOp28
 70
     1
102
RTVSPropertyOp29
 70
     1
102
RTVSPropertyOp30
 70
     1
102
RTVSPropertyOp31
 70
     1
102
RTVSPropertyOp32
 70
     1
102
RTVSPropertyOp33
 70
     1
102
RTVSPropertyOp34
 70
     1
102
RTVSPropertyOp35
 70
     1
102
RTVSPropertyOp36
 70
     1
102
RTVSPropertyOp37
 70
     1
102
RTVSPropertyOp38
 70
     1
102
RTVSPropertyOp39
 70
     1
102
RTVSPropertyOp40
 70
     1
102
RTVSPropertyOp41
 70
     1
102
RTVSPropertyOp42
 70
     1
102
RTVSPropertyOp43
 70
     1
102
RTVSPropertyOp44
 70
     1
102
RTVSPropertyOp45
 70
     1
102
RTVSPropertyOp46
 70
     1
102
RTVSPropertyOp47
 70
     1
102
RTVSPropertyOp48
 70
     1
102
RTVSPropertyOp49
 70
     1
102
RTVSPropertyOp50
 70
     1
102
RTVSPropertyOp51
 70
     0
102
RTVSPropertyOp52
 70
     0
102
RTVSPropertyOp53
 70
     1
102
RTVSPropertyOp54
 70
     1
102
RTVSPropertyOp55
 70
     1
102
RTVSPropertyOp56
 70
     1
102
RTVSPropertyOp57
 70
     1
102
RTVSPropertyOp58
 70
     1
102
RTVSPropertyOp59
 70
     1
102
RTVSPropertyOp60
 70
     1
102
RTVSPropertyOp61
 70
     1
102
RTVSPropertyOp62
 70
     1
  0
ENDSEC
  0
EOF
